  0
SECTION
  2
HEADER
  9
$ACADVER
  1
AC1018
  9
$ACADMAINTVER
 70
   104
  9
$DWGCODEPAGE
  3
ANSI_1252
  9
$LASTSAVEDBY
  1
Joseph H Fortier
  9
$INSBASE
 10
0.0
 20
0.0
 30
0.0
  9
$EXTMIN
 10
-0.8951802582263113
 20
0.0
 30
0.0
  9
$EXTMAX
 10
9.642500000000001
 20
7.126149371789017
 30
0.0
  9
$LIMMIN
 10
0.0
 20
0.0
  9
$LIMMAX
 10
12.0
 20
9.0
  9
$ORTHOMODE
 70
     1
  9
$REGENMODE
 70
     1
  9
$FILLMODE
 70
     1
  9
$QTEXTMODE
 70
     0
  9
$MIRRTEXT
 70
     0
  9
$LTSCALE
 40
1.0
  9
$ATTMODE
 70
     1
  9
$TEXTSIZE
 40
0.09
  9
$TRACEWID
 40
0.05
  9
$TEXTSTYLE
  7
DETAIL TEXT
  9
$CLAYER
  8
0
  9
$CELTYPE
  6
ByLayer
  9
$CECOLOR
 62
   256
  9
$CELTSCALE
 40
1.0
  9
$DISPSILH
 70
     0
  9
$DIMSCALE
 40
1.0
  9
$DIMASZ
 40
0.18
  9
$DIMEXO
 40
0.0625
  9
$DIMDLI
 40
0.38
  9
$DIMRND
 40
0.0
  9
$DIMDLE
 40
0.0
  9
$DIMEXE
 40
0.18
  9
$DIMTP
 40
0.0
  9
$DIMTM
 40
0.0
  9
$DIMTXT
 40
0.18
  9
$DIMCEN
 40
0.09
  9
$DIMTSZ
 40
0.0
  9
$DIMTOL
 70
     0
  9
$DIMLIM
 70
     0
  9
$DIMTIH
 70
     1
  9
$DIMTOH
 70
     1
  9
$DIMSE1
 70
     0
  9
$DIMSE2
 70
     0
  9
$DIMTAD
 70
     0
  9
$DIMZIN
 70
     0
  9
$DIMBLK
  1

  9
$DIMASO
 70
     1
  9
$DIMSHO
 70
     1
  9
$DIMPOST
  1

  9
$DIMAPOST
  1

  9
$DIMALT
 70
     0
  9
$DIMALTD
 70
     2
  9
$DIMALTF
 40
25.4
  9
$DIMLFAC
 40
1.0
  9
$DIMTOFL
 70
     0
  9
$DIMTVP
 40
0.0
  9
$DIMTIX
 70
     0
  9
$DIMSOXD
 70
     0
  9
$DIMSAH
 70
     0
  9
$DIMBLK1
  1

  9
$DIMBLK2
  1

  9
$DIMSTYLE
  2
Standard
  9
$DIMCLRD
 70
     0
  9
$DIMCLRE
 70
     0
  9
$DIMCLRT
 70
     0
  9
$DIMTFAC
 40
1.0
  9
$DIMGAP
 40
0.09
  9
$DIMJUST
 70
     0
  9
$DIMSD1
 70
     0
  9
$DIMSD2
 70
     0
  9
$DIMTOLJ
 70
     1
  9
$DIMTZIN
 70
     0
  9
$DIMALTZ
 70
     0
  9
$DIMALTTZ
 70
     0
  9
$DIMUPT
 70
     0
  9
$DIMDEC
 70
     4
  9
$DIMTDEC
 70
     4
  9
$DIMALTU
 70
     2
  9
$DIMALTTD
 70
     2
  9
$DIMTXSTY
  7
Standard
  9
$DIMAUNIT
 70
     0
  9
$DIMADEC
 70
     0
  9
$DIMALTRND
 40
0.0
  9
$DIMAZIN
 70
     0
  9
$DIMDSEP
 70
    46
  9
$DIMATFIT
 70
     3
  9
$DIMFRAC
 70
     0
  9
$DIMLDRBLK
  1

  9
$DIMLUNIT
 70
     2
  9
$DIMLWD
 70
    -2
  9
$DIMLWE
 70
    -2
  9
$DIMTMOVE
 70
     0
  9
$LUNITS
 70
     2
  9
$LUPREC
 70
     4
  9
$SKETCHINC
 40
0.1
  9
$FILLETRAD
 40
0.0
  9
$AUNITS
 70
     0
  9
$AUPREC
 70
     0
  9
$MENU
  1
.
  9
$ELEVATION
 40
0.0
  9
$PELEVATION
 40
0.0
  9
$THICKNESS
 40
0.0
  9
$LIMCHECK
 70
     0
  9
$CHAMFERA
 40
0.0
  9
$CHAMFERB
 40
0.0
  9
$CHAMFERC
 40
0.0
  9
$CHAMFERD
 40
0.0
  9
$SKPOLY
 70
     0
  9
$TDCREATE
 40
2456012.517465637
  9
$TDUCREATE
 40
2456012.809132303
  9
$TDUPDATE
 40
2456153.420881667
  9
$TDUUPDATE
 40
2456153.712548333
  9
$TDINDWG
 40
0.1206806134
  9
$TDUSRTIMER
 40
0.1206806134
  9
$USRTIMER
 70
     1
  9
$ANGBASE
 50
0.0
  9
$ANGDIR
 70
     0
  9
$PDMODE
 70
     0
  9
$PDSIZE
 40
0.0
  9
$PLINEWID
 40
0.0
  9
$SPLFRAME
 70
     0
  9
$SPLINETYPE
 70
     6
  9
$SPLINESEGS
 70
     8
  9
$HANDSEED
  5
1377
  9
$SURFTAB1
 70
     6
  9
$SURFTAB2
 70
     6
  9
$SURFTYPE
 70
     6
  9
$SURFU
 70
     6
  9
$SURFV
 70
     6
  9
$UCSBASE
  2

  9
$UCSNAME
  2

  9
$UCSORG
 10
0.0
 20
0.0
 30
0.0
  9
$UCSXDIR
 10
1.0
 20
0.0
 30
0.0
  9
$UCSYDIR
 10
0.0
 20
1.0
 30
0.0
  9
$UCSORTHOREF
  2

  9
$UCSORTHOVIEW
 70
     0
  9
$UCSORGTOP
 10
0.0
 20
0.0
 30
0.0
  9
$UCSORGBOTTOM
 10
0.0
 20
0.0
 30
0.0
  9
$UCSORGLEFT
 10
0.0
 20
0.0
 30
0.0
  9
$UCSORGRIGHT
 10
0.0
 20
0.0
 30
0.0
  9
$UCSORGFRONT
 10
0.0
 20
0.0
 30
0.0
  9
$UCSORGBACK
 10
0.0
 20
0.0
 30
0.0
  9
$PUCSBASE
  2

  9
$PUCSNAME
  2

  9
$PUCSORG
 10
0.0
 20
0.0
 30
0.0
  9
$PUCSXDIR
 10
1.0
 20
0.0
 30
0.0
  9
$PUCSYDIR
 10
0.0
 20
1.0
 30
0.0
  9
$PUCSORTHOREF
  2

  9
$PUCSORTHOVIEW
 70
     0
  9
$PUCSORGTOP
 10
0.0
 20
0.0
 30
0.0
  9
$PUCSORGBOTTOM
 10
0.0
 20
0.0
 30
0.0
  9
$PUCSORGLEFT
 10
0.0
 20
0.0
 30
0.0
  9
$PUCSORGRIGHT
 10
0.0
 20
0.0
 30
0.0
  9
$PUCSORGFRONT
 10
0.0
 20
0.0
 30
0.0
  9
$PUCSORGBACK
 10
0.0
 20
0.0
 30
0.0
  9
$USERI1
 70
     0
  9
$USERI2
 70
     0
  9
$USERI3
 70
     0
  9
$USERI4
 70
     0
  9
$USERI5
 70
     0
  9
$USERR1
 40
0.0
  9
$USERR2
 40
0.0
  9
$USERR3
 40
0.0
  9
$USERR4
 40
0.0
  9
$USERR5
 40
1.0
  9
$WORLDVIEW
 70
     1
  9
$SHADEDGE
 70
     3
  9
$SHADEDIF
 70
    70
  9
$TILEMODE
 70
     1
  9
$MAXACTVP
 70
    64
  9
$PINSBASE
 10
0.0
 20
0.0
 30
0.0
  9
$PLIMCHECK
 70
     0
  9
$PEXTMIN
 10
0.0
 20
0.0
 30
0.0
  9
$PEXTMAX
 10
0.0
 20
0.0
 30
0.0
  9
$PLIMMIN
 10
0.0
 20
0.0
  9
$PLIMMAX
 10
12.0
 20
9.0
  9
$UNITMODE
 70
     0
  9
$VISRETAIN
 70
     1
  9
$PLINEGEN
 70
     0
  9
$PSLTSCALE
 70
     1
  9
$TREEDEPTH
 70
  3020
  9
$CMLSTYLE
  2
Standard
  9
$CMLJUST
 70
     0
  9
$CMLSCALE
 40
1.0
  9
$PROXYGRAPHICS
 70
     1
  9
$MEASUREMENT
 70
     0
  9
$CELWEIGHT
370
    -1
  9
$ENDCAPS
280
     0
  9
$JOINSTYLE
280
     0
  9
$LWDISPLAY
290
     0
  9
$INSUNITS
 70
     0
  9
$HYPERLINKBASE
  1

  9
$STYLESHEET
  1

  9
$XEDIT
290
     1
  9
$CEPSNTYPE
380
     0
  9
$PSTYLEMODE
290
     1
  9
$FINGERPRINTGUID
  2
{54E25747-DECD-4F46-8E40-CC13C71438EE}
  9
$VERSIONGUID
  2
{B15FA99C-CF17-44E2-A412-D87AD3ED4773}
  9
$EXTNAMES
290
     1
  9
$PSVPSCALE
 40
0.0
  9
$OLESTARTUP
290
     0
  9
$SORTENTS
280
   127
  9
$INDEXCTL
280
     0
  9
$HIDETEXT
280
     1
  9
$XCLIPFRAME
290
     0
  9
$HALOGAP
280
     0
  9
$OBSCOLOR
 70
   257
  9
$OBSLTYPE
280
     0
  9
$INTERSECTIONDISPLAY
280
     0
  9
$INTERSECTIONCOLOR
 70
   257
  9
$DIMASSOC
280
     2
  9
$PROJECTNAME
  1

  0
ENDSEC
  0
SECTION
  2
CLASSES
  0
CLASS
  1
ACDBDICTIONARYWDFLT
  2
AcDbDictionaryWithDefault
  3
ObjectDBX Classes
 90
        0
 91
        1
280
     0
281
     0
  0
CLASS
  1
DICTIONARYVAR
  2
AcDbDictionaryVar
  3
ObjectDBX Classes
 90
        0
 91
       12
280
     0
281
     0
  0
CLASS
  1
TABLESTYLE
  2
AcDbTableStyle
  3
ObjectDBX Classes
 90
     4095
 91
        2
280
     0
281
     0
  0
CLASS
  1
MATERIAL
  2
AcDbMaterial
  3
ObjectDBX Classes
 90
     1153
 91
        3
280
     0
281
     0
  0
CLASS
  1
VISUALSTYLE
  2
AcDbVisualStyle
  3
ObjectDBX Classes
 90
     4095
 91
       26
280
     0
281
     0
  0
CLASS
  1
SCALE
  2
AcDbScale
  3
ObjectDBX Classes
 90
     1153
 91
       33
280
     0
281
     0
  0
CLASS
  1
MLEADERSTYLE
  2
AcDbMLeaderStyle
  3
ACDB_MLEADERSTYLE_CLASS
 90
     4095
 91
        2
280
     0
281
     0
  0
CLASS
  1
CELLSTYLEMAP
  2
AcDbCellStyleMap
  3
ObjectDBX Classes
 90
     1152
 91
        8
280
     0
281
     0
  0
CLASS
  1
EXACXREFPANELOBJECT
  2
ExAcXREFPanelObject
  3
EXAC_ESW
 90
     1025
 91
        0
280
     0
281
     0
  0
CLASS
  1
NPOCOLLECTION
  2
AcDbImpNonPersistentObjectsCollection
  3
ObjectDBX Classes
 90
     1153
 91
        0
280
     0
281
     0
  0
CLASS
  1
LAYER_INDEX
  2
AcDbLayerIndex
  3
ObjectDBX Classes
 90
        0
 91
        0
280
     0
281
     0
  0
CLASS
  1
SPATIAL_INDEX
  2
AcDbSpatialIndex
  3
ObjectDBX Classes
 90
        0
 91
        0
280
     0
281
     0
  0
CLASS
  1
IDBUFFER
  2
AcDbIdBuffer
  3
ObjectDBX Classes
 90
        0
 91
        0
280
     0
281
     0
  0
CLASS
  1
DMMAPMANAGER
  2
AcMapDMMapManager
  3
AcMapDisplayManagement
 90
     1024
 91
        1
280
     0
281
     0
  0
CLASS
  1
DMSTYLELIBRARY
  2
AcMapDMStyleLibrary
  3
AcMapDisplayManagement
 90
     1024
 91
        1
280
     0
281
     0
  0
CLASS
  1
DMSTYLECATEGORY
  2
AcMapDMStyleCategory
  3
AcMapDisplayManagement
 90
     1024
 91
        1
280
     0
281
     0
  0
CLASS
  1
DATATABLE
  2
AcDbDataTable
  3
ObjectDBX Classes
 90
        0
 91
        1
280
     0
281
     0
  0
CLASS
  1
DMMAP
  2
AcMapDMMap
  3
AcMapDisplayManagement
 90
     1024
 91
        1
280
     0
281
     0
  0
CLASS
  1
DMBASEELEMENT
  2
AcMapDMBaseElement
  3
AcMapDisplayManagement
 90
     1024
 91
        1
280
     0
281
     0
  0
CLASS
  1
DMDEFAULTSTYLE
  2
AcMapDMDefaultStyle
  3
AcMapDisplayManagement
 90
     1024
 91
        1
280
     0
281
     0
  0
CLASS
  1
DMSTYLEREFERENCE
  2
AcMapDMStyleReference
  3
AcMapDisplayManagement
 90
     1024
 91
        1
280
     0
281
     0
  0
CLASS
  1
DMSURROGATESTYLESETS
  2
AcMapDMSurrogateStyleSets
  3
AcMapDisplayManagement
 90
     1153
 91
        1
280
     0
281
     0
  0
CLASS
  1
SORTENTSTABLE
  2
AcDbSortentsTable
  3
ObjectDBX Classes
 90
        0
 91
        1
280
     0
281
     0
  0
CLASS
  1
DMSTYLIZEDENTITIESTABLE
  2
AcMapDMStylizedEntitiesTable
  3
AcMapDisplayManagement
 90
     1024
 91
        1
280
     0
281
     0
  0
CLASS
  1
MAPGWSUNDOOBJECT
  2
AcMapGWSUndoRecorder
  3
AcMapFeatureSourceManager
 90
     1025
 91
        1
280
     0
281
     0
  0
CLASS
  1
SUN
  2
AcDbSun
  3
SCENEOE
 90
     1153
 91
        1
280
     0
281
     0
  0
CLASS
  1
GEODATA
  2
AcDbGeoData
  3
ObjectDBX Classes
 90
     4095
 91
        1
280
     0
281
     0
  0
CLASS
  1
SOLID_BACKGROUND
  2
AcDbSolidBackground
  3
SCENEOE
 90
     4095
 91
        0
280
     0
281
     0
  0
CLASS
  1
MAPRESOURCEMANAGEROBJECT
  2
AcMapResourceManager
  3
AcMapSharedComponents
 90
     1024
 91
        0
280
     0
281
     0
  0
CLASS
  1
MULTILEADER
  2
AcDbMLeader
  3
ACDB_MLEADER_CLASS
 90
     1025
 91
        9
280
     0
281
     1
  0
CLASS
  1
DIMASSOC
  2
AcDbDimAssoc
  3
"AcDbDimAssoc|Product Desc:     AcDim ARX App For Dimension|Company:          Autodesk, Inc.|WEB Address:      www.autodesk.com"
 90
        0
 91
        0
280
     0
281
     0
  0
CLASS
  1
AEC_REFEDIT_STATUS_TRACKER
  2
AecDbRefEditStatusTracker
  3
AecArchBase60|Product Desc: Autodesk Architectural Desktop 2007 |Company: Autodesk,Inc. |WEB Address: www.autodesk.com
 90
      129
 91
        0
280
     0
281
     0
  0
ENDSEC
  0
SECTION
  2
TABLES
  0
TABLE
  2
VPORT
  5
8
102
{ACAD_XDICTIONARY
360
12A0
102
}
330
0
100
AcDbSymbolTable
 70
     1
  0
VPORT
  5
94
330
8
100
AcDbSymbolTableRecord
100
AcDbViewportTableRecord
  2
*Active
 70
     0
 10
0.0
 20
0.0
 11
1.0
 21
1.0
 12
4.821258539029441
 22
5.604020558906611
 13
0.0
 23
0.0
 14
0.5
 24
0.5
 15
0.5
 25
0.5
 16
0.0
 26
0.0
 36
1.0
 17
0.0
 27
0.0
 37
0.0
 40
9.656651363759417
 41
1.784580498866213
 42
50.0
 43
0.0
 44
0.0
 50
0.0
 51
0.0
 71
     0
 72
  1000
 73
     1
 74
     3
 75
     0
 76
     0
 77
     0
 78
     0
281
     0
 65
     1
110
0.0
120
0.0
130
0.0
111
1.0
121
0.0
131
0.0
112
0.0
122
1.0
132
0.0
 79
     0
146
0.0
  0
ENDTAB
  0
TABLE
  2
LTYPE
  5
5
330
0
100
AcDbSymbolTable
 70
     3
  0
LTYPE
  5
14
330
5
100
AcDbSymbolTableRecord
100
AcDbLinetypeTableRecord
  2
ByBlock
 70
     0
  3

 72
    65
 73
     0
 40
0.0
  0
LTYPE
  5
15
330
5
100
AcDbSymbolTableRecord
100
AcDbLinetypeTableRecord
  2
ByLayer
 70
     0
  3

 72
    65
 73
     0
 40
0.0
  0
LTYPE
  5
16
330
5
100
AcDbSymbolTableRecord
100
AcDbLinetypeTableRecord
  2
Continuous
 70
     0
  3
Solid line
 72
    65
 73
     0
 40
0.0
  0
LTYPE
  5
1E8
330
5
100
AcDbSymbolTableRecord
100
AcDbLinetypeTableRecord
  2
DASHED2
 70
     0
  3
Dashed (.5x) _ _ _ _ _ _ _ _ _ _ _ _ _ _ _ _ _
 72
    65
 73
     2
 40
0.375
 49
0.25
 74
     0
 49
-0.125
 74
     0
  0
LTYPE
  5
1F2
330
5
100
AcDbSymbolTableRecord
100
AcDbLinetypeTableRecord
  2
HIDDEN
 70
     0
  3
Hidden __ __ __ __ __ __ __ __ __ __ __ __ __ _
 72
    65
 73
     2
 40
0.375
 49
0.25
 74
     0
 49
-0.125
 74
     0
  0
ENDTAB
  0
TABLE
  2
LAYER
  5
2
102
{ACAD_XDICTIONARY
360
20C
102
}
330
0
100
AcDbSymbolTable
 70
    12
  0
LAYER
  5
10
102
{ACAD_XDICTIONARY
360
E6
102
}
330
2
100
AcDbSymbolTableRecord
100
AcDbLayerTableRecord
  2
0
 70
     0
 62
     7
  6
Continuous
370
    -3
390
F
  0
LAYER
  5
1EC
330
2
100
AcDbSymbolTableRecord
100
AcDbLayerTableRecord
  2
NETAFIM-L-DETL-025M
 70
     0
 62
     2
  6
Continuous
370
    -3
390
F
  0
LAYER
  5
800
330
2
100
AcDbSymbolTableRecord
100
AcDbLayerTableRecord
  2
NETAFIM-LG-DETL-ANNO
 70
     0
 62
     1
  6
Continuous
370
    -3
390
F
  0
LAYER
  5
801
102
{ACAD_XDICTIONARY
360
802
102
}
330
2
100
AcDbSymbolTableRecord
100
AcDbLayerTableRecord
  2
NETAFIM-D-TEXT-025M
 70
     0
 62
     2
  6
Continuous
370
    -3
390
F
  0
LAYER
  5
803
102
{ACAD_XDICTIONARY
360
804
102
}
330
2
100
AcDbSymbolTableRecord
100
AcDbLayerTableRecord
  2
NETAFIM-D-070M
 70
     0
 62
     6
  6
Continuous
370
    -3
390
F
  0
LAYER
  5
805
102
{ACAD_XDICTIONARY
360
806
102
}
330
2
100
AcDbSymbolTableRecord
100
AcDbLayerTableRecord
  2
NETAFIM-D-NPLT
 70
     0
 62
     1
  6
Continuous
370
    -3
390
F
  0
LAYER
  5
807
330
2
100
AcDbSymbolTableRecord
100
AcDbLayerTableRecord
  2
NETAFIM-L-DETL-013M
 70
     0
 62
     1
  6
Continuous
370
    -3
390
F
  0
LAYER
  5
80E
102
{ACAD_XDICTIONARY
360
80F
102
}
330
2
100
AcDbSymbolTableRecord
100
AcDbLayerTableRecord
  2
NETAFIM-L-DETL-TEXT-LEADER-025M
 70
     0
 62
     2
  6
Continuous
370
    -3
390
F
1001
AcAecLayerStandard
1000

1000

  0
LAYER
  5
EB0
330
2
100
AcDbSymbolTableRecord
100
AcDbLayerTableRecord
  2
NETAFIM-L-DETL-035M
 70
     0
 62
     4
  6
Continuous
370
    -3
390
F
  0
LAYER
  5
EB1
330
2
100
AcDbSymbolTableRecord
100
AcDbLayerTableRecord
  2
NETAFIM-L-DETL-HIDD-035M
 70
     0
 62
     4
  6
HIDDEN
370
    -3
390
F
  0
LAYER
  5
EB2
330
2
100
AcDbSymbolTableRecord
100
AcDbLayerTableRecord
  2
NETAFIM-L-DETL-025M-TUBING
 70
     0
 62
    25
  6
Continuous
370
    -3
390
F
1001
AcAecLayerStandard
1000

1000

  0
LAYER
  5
11B5
330
2
100
AcDbSymbolTableRecord
100
AcDbLayerTableRecord
  2
NETAFIM-L-DETL-TEXT
 70
     0
 62
     1
  6
Continuous
370
    -3
390
F
1001
AcAecLayerStandard
1000

1000

1001
AcCmTransparency
1071
        0
  0
ENDTAB
  0
TABLE
  2
STYLE
  5
3
330
0
100
AcDbSymbolTable
 70
     6
  0
STYLE
  5
11
330
3
100
AcDbSymbolTableRecord
100
AcDbTextStyleTableRecord
  2
Standard
 70
     0
 40
0.0
 41
1.0
 50
0.0
 71
     0
 42
0.2
  3
arial.ttf
  4

1001
ACAD
1000
Arial
1071
       34
  0
STYLE
  5
180
330
3
100
AcDbSymbolTableRecord
100
AcDbTextStyleTableRecord
  2
Legend
 70
     0
 40
0.0
 41
1.0
 50
0.0
 71
     0
 42
0.2
  3
CALIBRI.TTF
  4

1001
ACAD
1000
Calibri
1071
      256
  0
STYLE
  5
1A9
330
3
100
AcDbSymbolTableRecord
100
AcDbTextStyleTableRecord
  2
DETAIL NUMBER
 70
     0
 40
0.0
 41
1.0
 50
0.0
 71
     0
 42
0.24
  3
swiss.ttf
  4

1001
ACAD
1000
Swis721 BT
1071
       34
  0
STYLE
  5
1AA
330
3
100
AcDbSymbolTableRecord
100
AcDbTextStyleTableRecord
  2
DETAIL TITLE
 70
     0
 40
0.0
 41
1.0
 50
0.0
 71
     0
 42
0.18
  3
swiss.ttf
  4

1001
ACAD
1000
Swis721 BT
1071
       34
  0
STYLE
  5
1AB
330
3
100
AcDbSymbolTableRecord
100
AcDbTextStyleTableRecord
  2
DETAIL TEXT
 70
     0
 40
0.0
 41
1.0
 50
0.0
 71
     0
 42
0.09
  3
ROMANS.SHX
  4

  0
STYLE
  5
810
330
3
100
AcDbSymbolTableRecord
100
AcDbTextStyleTableRecord
  2
Netafim Detail
 70
     0
 40
0.09
 41
1.0
 50
0.0
 71
     0
 42
0.2
  3
arial.ttf
  4

1001
ACAD
1000
Arial
1071
       34
  0
ENDTAB
  0
TABLE
  2
VIEW
  5
6
330
0
100
AcDbSymbolTable
 70
     1
  0
ENDTAB
  0
TABLE
  2
UCS
  5
7
330
0
100
AcDbSymbolTable
 70
     0
  0
ENDTAB
  0
TABLE
  2
APPID
  5
9
330
0
100
AcDbSymbolTable
 70
    19
  0
APPID
  5
12
330
9
100
AcDbSymbolTableRecord
100
AcDbRegAppTableRecord
  2
ACAD
 70
     0
  0
APPID
  5
DD
330
9
100
AcDbSymbolTableRecord
100
AcDbRegAppTableRecord
  2
AcadAnnoPO
 70
     0
  0
APPID
  5
DE
330
9
100
AcDbSymbolTableRecord
100
AcDbRegAppTableRecord
  2
AcadAnnotative
 70
     0
  0
APPID
  5
DF
330
9
100
AcDbSymbolTableRecord
100
AcDbRegAppTableRecord
  2
ACAD_DSTYLE_DIMJAG
 70
     0
  0
APPID
  5
E0
330
9
100
AcDbSymbolTableRecord
100
AcDbRegAppTableRecord
  2
ACAD_DSTYLE_DIMTALN
 70
     0
  0
APPID
  5
107
330
9
100
AcDbSymbolTableRecord
100
AcDbRegAppTableRecord
  2
ACAD_MLEADERVER
 70
     0
  0
APPID
  5
184
330
9
100
AcDbSymbolTableRecord
100
AcDbRegAppTableRecord
  2
AcMapDMDisplayStyleRegapp
 70
     0
  0
APPID
  5
18E
330
9
100
AcDbSymbolTableRecord
100
AcDbRegAppTableRecord
  2
ADE
 70
     0
  0
APPID
  5
191
330
9
100
AcDbSymbolTableRecord
100
AcDbRegAppTableRecord
  2
MapGWS
 70
     0
  0
APPID
  5
194
330
9
100
AcDbSymbolTableRecord
100
AcDbRegAppTableRecord
  2
DCO15
 70
     0
  0
APPID
  5
19E
330
9
100
AcDbSymbolTableRecord
100
AcDbRegAppTableRecord
  2
LandFX
 70
     0
  0
APPID
  5
1AC
330
9
100
AcDbSymbolTableRecord
100
AcDbRegAppTableRecord
  2
RAK
 70
     0
  0
APPID
  5
1AD
330
9
100
AcDbSymbolTableRecord
100
AcDbRegAppTableRecord
  2
ACAD_EXEMPT_FROM_CAD_STANDARDS
 70
     0
  0
APPID
  5
209
330
9
100
AcDbSymbolTableRecord
100
AcDbRegAppTableRecord
  2
ACAD_PSEXT
 70
     0
  0
APPID
  5
20A
330
9
100
AcDbSymbolTableRecord
100
AcDbRegAppTableRecord
  2
AcAecLayerStandard
 70
     0
  0
APPID
  5
20B
330
9
100
AcDbSymbolTableRecord
100
AcDbRegAppTableRecord
  2
ACAD_NAV_VCDISPLAY
 70
     0
  0
APPID
  5
812
330
9
100
AcDbSymbolTableRecord
100
AcDbRegAppTableRecord
  2
ACAD_DSTYLE_DIMBREAK
 70
     0
  0
APPID
  5
CA9
330
9
100
AcDbSymbolTableRecord
100
AcDbRegAppTableRecord
  2
AcLayerTools
 70
     0
  0
APPID
  5
11B6
330
9
100
AcDbSymbolTableRecord
100
AcDbRegAppTableRecord
  2
AcCmTransparency
 70
     0
  0
ENDTAB
  0
TABLE
  2
DIMSTYLE
  5
A
330
0
100
AcDbSymbolTable
 70
     2
100
AcDbDimStyleTable
 71
     1
340
27
  0
DIMSTYLE
105
27
330
A
100
AcDbSymbolTableRecord
100
AcDbDimStyleTableRecord
  2
Standard
 70
     0
340
11
  0
DIMSTYLE
105
811
330
A
100
AcDbSymbolTableRecord
100
AcDbDimStyleTableRecord
  2
Netafim Detail
 70
     0
 41
0.12
140
0.09
271
     2
272
     2
340
810
1001
ACAD_DSTYLE_DIMBREAK
1070
   391
1040
0.125
1001
ACAD_DSTYLE_DIMJAG
1070
   388
1040
1.5
1001
ACAD_DSTYLE_DIMTALN
1070
   392
1070
     0
  0
ENDTAB
  0
TABLE
  2
BLOCK_RECORD
  5
1
330
0
100
AcDbSymbolTable
 70
     1
  0
BLOCK_RECORD
  5
1F
102
{ACAD_XDICTIONARY
360
15D
102
}
330
1
100
AcDbSymbolTableRecord
100
AcDbBlockTableRecord
  2
*Model_Space
340
22
  0
BLOCK_RECORD
  5
58
330
1
100
AcDbSymbolTableRecord
100
AcDbBlockTableRecord
  2
*Paper_Space
340
59
  0
BLOCK_RECORD
  5
5D
330
1
100
AcDbSymbolTableRecord
100
AcDbBlockTableRecord
  2
*Paper_Space0
340
5E
  0
ENDTAB
  0
ENDSEC
  0
SECTION
  2
BLOCKS
  0
BLOCK
  5
20
330
1F
100
AcDbEntity
  8
0
100
AcDbBlockBegin
  2
*Model_Space
 70
     0
 10
0.0
 20
0.0
 30
0.0
  3
*Model_Space
  1

  0
ENDBLK
  5
21
330
1F
100
AcDbEntity
  8
0
100
AcDbBlockEnd
  0
BLOCK
  5
5A
330
58
100
AcDbEntity
 67
     1
  8
0
100
AcDbBlockBegin
  2
*Paper_Space
 70
     0
 10
0.0
 20
0.0
 30
0.0
  3
*Paper_Space
  1

  0
ENDBLK
  5
5B
330
58
100
AcDbEntity
 67
     1
  8
0
100
AcDbBlockEnd
  0
BLOCK
  5
5F
330
5D
100
AcDbEntity
 67
     1
  8
0
100
AcDbBlockBegin
  2
*Paper_Space0
 70
     0
 10
0.0
 20
0.0
 30
0.0
  3
*Paper_Space0
  1

  0
ENDBLK
  5
60
330
5D
100
AcDbEntity
 67
     1
  8
0
100
AcDbBlockEnd
  0
ENDSEC
  0
SECTION
  2
ENTITIES
  0
LEADER
  5
A3D
330
1F
100
AcDbEntity
  8
NETAFIM-L-DETL-TEXT-LEADER-025M
100
AcDbLeader
  3
Netafim Detail
 76
     3
 10
4.837837865967038
 20
4.11185208956283
 30
0.0
 10
5.223251086533778
 20
4.11185208956283
 30
0.0
 10
5.242567463343497
 20
4.11185208956283
 30
0.0
1001
ACAD
1000
DSTYLE
1002
{
1070
    40
1040
1.0
1070
    41
1040
0.125
1070
   341
1005
0
1070
    63
1070
     1
1002
}
  0
LEADER
  5
A3E
330
1F
100
AcDbEntity
  8
NETAFIM-L-DETL-TEXT-LEADER-025M
100
AcDbLeader
  3
Netafim Detail
 76
     3
 10
4.712373925242204
 20
4.112061941019714
 30
0.0
 10
4.432286946567231
 20
4.112061941019714
 30
0.0
 10
4.412970569757511
 20
4.112061941019714
 30
0.0
211
-1.0
221
0.0
231
0.0
1001
ACAD
1000
DSTYLE
1002
{
1070
    40
1040
1.0
1070
    41
1040
0.125
1070
   341
1005
0
1070
    63
1070
     1
1002
}
  0
LWPOLYLINE
  5
A40
330
1F
100
AcDbEntity
  8
NETAFIM-LG-DETL-ANNO
100
AcDbPolyline
 90
        4
 70
     1
 43
0.0
 10
0.0
 20
0.001149371789019
 10
9.642500000000001
 20
0.001149371789019
 10
9.642500000000001
 20
7.126149371789017
 10
0.0
 20
7.126149371789017
1001
LandFX
1000
DETAIL-FORMAT
1000
1A
1040
1.0
1000
DIM1
  0
LINE
  5
A41
330
1F
100
AcDbEntity
  8
NETAFIM-D-070M
100
AcDbLine
 10
0.6827834977815748
 20
0.3422839514230969
 30
0.0
 11
9.402671659680127
 21
0.3422839514230969
 31
0.0
  0
CIRCLE
  5
A42
330
1F
100
AcDbEntity
  8
NETAFIM-D-070M
100
AcDbCircle
 10
0.4015334977815748
 20
0.3422839514230969
 30
0.0
 40
0.28125
1001
LandFX
1000
DETAIL-CIRCLE
  0
TEXT
  5
A43
330
1F
100
AcDbEntity
  8
NETAFIM-D-TEXT-025M
100
AcDbText
 10
0.2183970415697622
 20
0.2375159326216156
 30
0.0
 40
0.24
  1
00
  7
DETAIL NUMBER
 72
     1
 11
0.4015334977815748
 21
0.2375159326216156
 31
0.0
100
AcDbText
1001
LandFX
1000
DETAIL-NUMBER
  0
TEXT
  5
A44
330
1F
100
AcDbEntity
  8
NETAFIM-D-TEXT-025M
100
AcDbText
 10
0.862738956263076
 20
0.4303466547115669
 30
0.0
 40
0.18
  1
Techline® CV END FEED LAYOUT
  7
DETAIL TITLE
100
AcDbText
1001
LandFX
1000
DETAIL-TITLE
  0
TEXT
  5
A45
330
1F
100
AcDbEntity
  8
NETAFIM-D-TEXT-025M
100
AcDbText
 10
0.8697210820341609
 20
0.140892385451906
 30
0.0
 40
0.09
  1
NOT TO SCALE
  7
DETAIL TEXT
100
AcDbText
1001
LandFX
1000
DETAIL-SCALE
  0
TEXT
  5
A46
330
1F
100
AcDbEntity
  8
NETAFIM-D-TEXT-025M
100
AcDbText
 10
8.368192080551775
 20
0.1359871945063418
 30
0.0
 40
0.09
  1
DETAIL - C101
  7
DETAIL TEXT
 72
     2
 11
9.392477794837489
 21
0.1359871945063418
 31
0.0
100
AcDbText
1001
LandFX
1000
DETAIL-FILE
  0
LINE
  5
A47
330
1F
100
AcDbEntity
  8
NETAFIM-D-NPLT
100
AcDbLine
 10
0.0
 20
0.1511493717890193
 30
0.0
 11
0.0
 21
0.001149371789019
 31
0.0
  0
LINE
  5
A48
330
1F
100
AcDbEntity
  8
NETAFIM-D-NPLT
100
AcDbLine
 10
9.642500000000001
 20
0.1511493717890193
 30
0.0
 11
9.642500000000001
 21
0.001149371789019
 31
0.0
  0
LINE
  5
A49
330
1F
100
AcDbEntity
  8
NETAFIM-D-NPLT
100
AcDbLine
 10
0.0
 20
0.001149371789019
 30
0.0
 11
0.1499999999999986
 21
0.001149371789019
 31
0.0
  0
LINE
  5
A4A
330
1F
100
AcDbEntity
  8
NETAFIM-D-NPLT
100
AcDbLine
 10
9.492500000000003
 20
0.001149371789019
 30
0.0
 11
9.642500000000001
 21
0.001149371789019
 31
0.0
  0
HATCH
  5
A4B
330
1F
100
AcDbEntity
  8
NETAFIM-L-DETL-013M
100
AcDbHatch
 10
0.0
 20
0.0
 30
0.0
210
0.0
220
0.0
230
1.0
  2
SOLID
 70
     1
 71
     0
 91
       12
 92
        7
 72
     1
 73
     1
 93
        3
 10
8.182780123719755
 20
0.5100073791113582
 42
1.407273687863683
 10
8.306610455730019
 20
0.5100073791113582
 42
0.0
 10
8.244695289724887
 20
0.6558703694249166
 42
0.0
 97
        0
 92
        7
 72
     1
 73
     1
 93
        3
 10
8.328564270341036
 20
0.7425250438722069
 42
0.0
 10
8.289189270341037
 20
0.6497633569678971
 42
1.407273687863691
 10
8.367939270341036
 20
0.6497633569678971
 42
0.0
 97
        0
 92
        7
 72
     0
 73
     1
 93
       10
 10
8.471403918155896
 20
0.6499246336248543
 10
8.504014490154165
 20
0.5649711891187535
 10
8.553964490154164
 20
0.5649711891187535
 10
8.576479131873487
 20
0.725171189118754
 10
8.526529131873488
 20
0.725171189118754
 10
8.514589703871756
 20
0.6402177446126523
 10
8.481979131873487
 20
0.725171189118754
 10
8.432029131873488
 20
0.725171189118754
 10
8.409514490154162
 20
0.5649711891187535
 10
8.459464490154164
 20
0.5649711891187535
 97
        0
 92
        7
 72
     0
 73
     1
 93
       12
 10
8.631780241607764
 20
0.6249071639793371
 10
8.672276386040906
 20
0.6249071639793371
 10
8.678084469672661
 20
0.6662338263978178
 10
8.637588325239523
 20
0.6662338263978178
 10
8.639780301579644
 20
0.6818305484804972
 10
8.683787503302859
 20
0.6818305484804972
 10
8.689878633114695
 20
0.725171189118754
 10
8.593129131873485
 20
0.725171189118754
 10
8.570614490154163
 20
0.5649711891187535
 10
8.667363991395372
 20
0.5649711891187535
 10
8.673438897252278
 20
0.6081963903193231
 10
8.629431695529063
 20
0.6081963903193231
 97
        0
 92
        7
 72
     0
 73
     1
 93
        8
 10
8.711801491395373
 20
0.5649711891187535
 10
8.761751491395372
 20
0.5649711891187535
 10
8.778191227257789
 20
0.6819459879181835
 10
8.808228727257787
 20
0.6819459879181835
 10
8.814303633114693
 20
0.725171189118754
 10
8.704278633114697
 20
0.725171189118754
 10
8.698203727257787
 20
0.6819459879181835
 10
8.72824122725779
 20
0.6819459879181835
 97
        0
 92
        7
 72
     0
 73
     1
 93
        8
 10
8.775267221775955
 20
0.5649711891187535
 10
8.829267221775953
 20
0.5649711891187535
 10
8.837971398315644
 20
0.5860993311793683
 10
8.880785001506225
 20
0.5860993311793683
 10
8.881852988542362
 20
0.5649711891187535
 10
8.933602988542361
 20
0.5649711891187535
 10
8.912512258428861
 20
0.725171189118754
 10
8.855139995386114
 20
0.725171189118754
 97
        0
 92
       22
 72
     0
 73
     1
 93
        3
 10
8.853959090316418
 20
0.6249071639793371
 10
8.876105958546798
 20
0.678665515046256
 10
8.878823340030642
 20
0.6249071639793371
 97
        0
 92
        7
 72
     0
 73
     1
 93
       10
 10
9.008384722948694
 20
0.6249071639793371
 10
9.048880867381832
 20
0.6249071639793371
 10
9.054688951013591
 20
0.6662338263978178
 10
9.014192806580449
 20
0.6662338263978178
 10
9.016384782920571
 20
0.6818305484804972
 10
9.060391984643786
 20
0.6818305484804972
 10
9.066483114455625
 20
0.725171189118754
 10
8.969600912732406
 20
0.725171189118754
 10
8.947086271013084
 20
0.5649711891187535
 10
8.999961271013084
 20
0.5649711891187535
 97
        0
 92
        7
 72
     0
 73
     1
 93
        4
 10
9.134433114455621
 20
0.725171189118754
 10
9.081558114455621
 20
0.725171189118754
 10
9.059043472736302
 20
0.5649711891187535
 10
9.111918472736302
 20
0.5649711891187535
 97
        0
 92
        7
 72
     0
 73
     1
 93
       13
 10
9.194590601815551
 20
0.6437389939493868
 10
9.204960580050983
 20
0.5649711891187535
 10
9.239362041544534
 20
0.5649711891187535
 10
9.269742683095667
 20
0.6502987951342672
 10
9.269742683095667
 20
0.5649711891187535
 10
9.317892683095667
 20
0.5649711891187535
 10
9.317892683095667
 20
0.725171189118754
 10
9.261999315857149
 20
0.725171189118754
 10
9.233007043797716
 20
0.6437429821594592
 10
9.222286816977462
 20
0.725171189118754
 10
9.168440908032582
 20
0.725171189118754
 10
9.122504297234019
 20
0.5649711891187535
 10
9.172004297234021
 20
0.5649711891187535
 97
        0
 92
        7
 72
     0
 73
     1
 93
        8
 10
9.359631383606693
 20
0.725171189118754
 10
9.334881383606692
 20
0.725171189118754
 10
9.334881383606692
 20
0.7204461891187535
 10
9.343881383606689
 20
0.7204461891187535
 10
9.343881383606689
 20
0.695471189118754
 10
9.350631383606692
 20
0.695471189118754
 10
9.350631383606692
 20
0.7204461891187535
 10
9.359631383606693
 20
0.7204461891187535
 97
        0
 92
        7
 72
     0
 73
     1
 93
       13
 10
9.374481383606692
 20
0.725171189118754
 10
9.363456383606692
 20
0.725171189118754
 10
9.363456383606692
 20
0.695471189118754
 10
9.370206383606692
 20
0.695471189118754
 10
9.370206383606692
 20
0.7169114771485603
 10
9.378868883606692
 20
0.695471189118754
 10
9.383368883606692
 20
0.695471189118754
 10
9.392031383606692
 20
0.7169114771485594
 10
9.392031383606692
 20
0.695471189118754
 10
9.398781383606692
 20
0.695471189118754
 10
9.398781383606692
 20
0.725171189118754
 10
9.387756383606692
 20
0.725171189118754
 10
9.381118883606692
 20
0.7087429164725388
 97
        0
 75
     0
 76
     1
 47
0.0019728894204142
 98
       12
 10
8.230372135110648
 20
0.5114645859393168
 10
8.336056493365362
 20
0.6455224233934694
 10
8.449733788517161
 20
0.6384200205819886
 10
8.618473522372621
 20
0.6384200205819886
 10
8.745472374982277
 20
0.6366444208863796
 10
8.829842238882047
 20
0.6135616147708501
 10
8.829842238882047
 20
0.6135616147708501
 10
8.987924728588001
 20
0.6251030168213534
 10
9.102490125147951
 20
0.6268786185314852
 10
9.1877480965118
 20
0.6499614246470138
 10
9.348494893470178
 20
0.7236488442471467
 10
9.365368868672501
 20
0.7245366440949513
450
        0
451
        0
460
0.0
461
0.0
452
        1
462
1.0
453
        2
463
0.0
 63
     5
421
      255
463
1.0
 63
     7
421
 16777215
470
LINEAR
1001
ACAD
1010
0.0
1020
0.0
1030
0.0
  0
LWPOLYLINE
  5
A4C
330
1F
100
AcDbEntity
  8
NETAFIM-L-DETL-013M
100
AcDbPolyline
 90
        3
 70
     1
 43
0.0
 10
8.328564270341036
 20
0.7425250438722069
 10
8.289189270341037
 20
0.6497633569678971
 42
1.407273687863686
 10
8.367939270341036
 20
0.6497633569678963
  0
LWPOLYLINE
  5
A4D
330
1F
100
AcDbEntity
  8
NETAFIM-L-DETL-013M
100
AcDbPolyline
 90
        3
 70
     1
 43
0.0
 10
8.244695289724887
 20
0.6558703694249166
 10
8.182780123719755
 20
0.5100073791113582
 42
1.407273687863686
 10
8.306610455730019
 20
0.5100073791113582
  0
LWPOLYLINE
  5
A4E
330
1F
100
AcDbEntity
  8
NETAFIM-L-DETL-013M
100
AcDbPolyline
 90
        2
 70
     0
 43
0.0
 10
8.432029131873488
 20
0.725171189118754
 10
8.481979131873487
 20
0.725171189118754
  0
LWPOLYLINE
  5
A4F
330
1F
100
AcDbEntity
  8
NETAFIM-L-DETL-013M
100
AcDbPolyline
 90
        2
 70
     0
 43
0.0
 10
8.526529131873488
 20
0.725171189118754
 10
8.576479131873487
 20
0.725171189118754
  0
LWPOLYLINE
  5
A50
330
1F
100
AcDbEntity
  8
NETAFIM-L-DETL-013M
100
AcDbPolyline
 90
        2
 70
     0
 43
0.0
 10
8.704278633114697
 20
0.725171189118754
 10
8.814303633114693
 20
0.725171189118754
  0
LWPOLYLINE
  5
A51
330
1F
100
AcDbEntity
  8
NETAFIM-L-DETL-013M
100
AcDbPolyline
 90
        2
 70
     0
 43
0.0
 10
8.855139995386114
 20
0.725171189118754
 10
8.912512258428861
 20
0.725171189118754
  0
LWPOLYLINE
  5
A52
330
1F
100
AcDbEntity
  8
NETAFIM-L-DETL-013M
100
AcDbPolyline
 90
        2
 70
     0
 43
0.0
 10
8.969600912732406
 20
0.725171189118754
 10
9.066483114455625
 20
0.725171189118754
  0
LWPOLYLINE
  5
A53
330
1F
100
AcDbEntity
  8
NETAFIM-L-DETL-013M
100
AcDbPolyline
 90
        2
 70
     0
 43
0.0
 10
9.081558114455621
 20
0.725171189118754
 10
9.134433114455621
 20
0.725171189118754
  0
LWPOLYLINE
  5
A54
330
1F
100
AcDbEntity
  8
NETAFIM-L-DETL-013M
100
AcDbPolyline
 90
        2
 70
     0
 43
0.0
 10
9.168440908032582
 20
0.725171189118754
 10
9.222286816977462
 20
0.725171189118754
  0
LWPOLYLINE
  5
A55
330
1F
100
AcDbEntity
  8
NETAFIM-L-DETL-013M
100
AcDbPolyline
 90
        2
 70
     0
 43
0.0
 10
9.261999315857149
 20
0.725171189118754
 10
9.317892683095667
 20
0.725171189118754
  0
LWPOLYLINE
  5
A56
330
1F
100
AcDbEntity
  8
NETAFIM-L-DETL-013M
100
AcDbPolyline
 90
        2
 70
     0
 43
0.0
 10
9.334881383606692
 20
0.725171189118754
 10
9.359631383606693
 20
0.725171189118754
  0
LWPOLYLINE
  5
A57
330
1F
100
AcDbEntity
  8
NETAFIM-L-DETL-013M
100
AcDbPolyline
 90
        2
 70
     0
 43
0.0
 10
9.363456383606692
 20
0.725171189118754
 10
9.374481383606692
 20
0.725171189118754
  0
LWPOLYLINE
  5
A58
330
1F
100
AcDbEntity
  8
NETAFIM-L-DETL-013M
100
AcDbPolyline
 90
        2
 70
     0
 43
0.0
 10
9.387756383606692
 20
0.725171189118754
 10
9.398781383606692
 20
0.725171189118754
  0
LWPOLYLINE
  5
A59
330
1F
100
AcDbEntity
  8
NETAFIM-L-DETL-013M
100
AcDbPolyline
 90
        2
 70
     0
 43
0.0
 10
9.343881383606689
 20
0.695471189118754
 10
9.350631383606692
 20
0.695471189118754
  0
LWPOLYLINE
  5
A5A
330
1F
100
AcDbEntity
  8
NETAFIM-L-DETL-013M
100
AcDbPolyline
 90
        2
 70
     0
 43
0.0
 10
9.363456383606692
 20
0.695471189118754
 10
9.370206383606692
 20
0.695471189118754
  0
LWPOLYLINE
  5
A5B
330
1F
100
AcDbEntity
  8
NETAFIM-L-DETL-013M
100
AcDbPolyline
 90
        2
 70
     0
 43
0.0
 10
9.378868883606692
 20
0.695471189118754
 10
9.383368883606692
 20
0.695471189118754
  0
LWPOLYLINE
  5
A5C
330
1F
100
AcDbEntity
  8
NETAFIM-L-DETL-013M
100
AcDbPolyline
 90
        2
 70
     0
 43
0.0
 10
9.392031383606692
 20
0.695471189118754
 10
9.398781383606692
 20
0.695471189118754
  0
LWPOLYLINE
  5
A5D
330
1F
100
AcDbEntity
  8
NETAFIM-L-DETL-013M
100
AcDbPolyline
 90
        2
 70
     0
 43
0.0
 10
8.409514490154162
 20
0.5649711891187535
 10
8.459464490154164
 20
0.5649711891187535
  0
LWPOLYLINE
  5
A5E
330
1F
100
AcDbEntity
  8
NETAFIM-L-DETL-013M
100
AcDbPolyline
 90
        2
 70
     0
 43
0.0
 10
8.504014490154165
 20
0.5649711891187535
 10
8.553964490154164
 20
0.5649711891187535
  0
LWPOLYLINE
  5
A5F
330
1F
100
AcDbEntity
  8
NETAFIM-L-DETL-013M
100
AcDbPolyline
 90
        2
 70
     0
 43
0.0
 10
8.570614490154163
 20
0.5649711891187535
 10
8.667363991395372
 20
0.5649711891187535
  0
LWPOLYLINE
  5
A60
330
1F
100
AcDbEntity
  8
NETAFIM-L-DETL-013M
100
AcDbPolyline
 90
        2
 70
     0
 43
0.0
 10
8.711801491395373
 20
0.5649711891187535
 10
8.761751491395372
 20
0.5649711891187535
  0
LWPOLYLINE
  5
A61
330
1F
100
AcDbEntity
  8
NETAFIM-L-DETL-013M
100
AcDbPolyline
 90
        2
 70
     0
 43
0.0
 10
8.775267221775955
 20
0.5649711891187535
 10
8.829267221775953
 20
0.5649711891187535
  0
LWPOLYLINE
  5
A62
330
1F
100
AcDbEntity
  8
NETAFIM-L-DETL-013M
100
AcDbPolyline
 90
        2
 70
     0
 43
0.0
 10
8.881852988542362
 20
0.5649711891187535
 10
8.933602988542361
 20
0.5649711891187535
  0
LWPOLYLINE
  5
A63
330
1F
100
AcDbEntity
  8
NETAFIM-L-DETL-013M
100
AcDbPolyline
 90
        2
 70
     0
 43
0.0
 10
8.947086271013084
 20
0.5649711891187535
 10
8.999961271013084
 20
0.5649711891187535
  0
LWPOLYLINE
  5
A64
330
1F
100
AcDbEntity
  8
NETAFIM-L-DETL-013M
100
AcDbPolyline
 90
        2
 70
     0
 43
0.0
 10
9.059043472736302
 20
0.5649711891187535
 10
9.111918472736302
 20
0.5649711891187535
  0
LWPOLYLINE
  5
A65
330
1F
100
AcDbEntity
  8
NETAFIM-L-DETL-013M
100
AcDbPolyline
 90
        2
 70
     0
 43
0.0
 10
9.122504297234019
 20
0.5649711891187535
 10
9.172004297234021
 20
0.5649711891187535
  0
LWPOLYLINE
  5
A66
330
1F
100
AcDbEntity
  8
NETAFIM-L-DETL-013M
100
AcDbPolyline
 90
        2
 70
     0
 43
0.0
 10
9.204960580050983
 20
0.5649711891187535
 10
9.239362041544534
 20
0.5649711891187535
  0
LWPOLYLINE
  5
A67
330
1F
100
AcDbEntity
  8
NETAFIM-L-DETL-013M
100
AcDbPolyline
 90
        2
 70
     0
 43
0.0
 10
9.269742683095667
 20
0.5649711891187535
 10
9.317892683095667
 20
0.5649711891187535
  0
LWPOLYLINE
  5
A68
330
1F
100
AcDbEntity
  8
NETAFIM-L-DETL-013M
100
AcDbPolyline
 90
        2
 70
     0
 43
0.0
 10
8.409514490154162
 20
0.5649711891187535
 10
8.432029131873488
 20
0.725171189118754
  0
LWPOLYLINE
  5
A69
330
1F
100
AcDbEntity
  8
NETAFIM-L-DETL-013M
100
AcDbPolyline
 90
        2
 70
     0
 43
0.0
 10
8.459464490154164
 20
0.5649711891187535
 10
8.471403918155896
 20
0.6499246336248543
  0
LWPOLYLINE
  5
A6A
330
1F
100
AcDbEntity
  8
NETAFIM-L-DETL-013M
100
AcDbPolyline
 90
        2
 70
     0
 43
0.0
 10
8.514589703871756
 20
0.6402177446126523
 10
8.481979131873487
 20
0.725171189118754
  0
LWPOLYLINE
  5
A6B
330
1F
100
AcDbEntity
  8
NETAFIM-L-DETL-013M
100
AcDbPolyline
 90
        2
 70
     0
 43
0.0
 10
8.514589703871756
 20
0.6402177446126523
 10
8.526529131873488
 20
0.725171189118754
  0
LWPOLYLINE
  5
A6C
330
1F
100
AcDbEntity
  8
NETAFIM-L-DETL-013M
100
AcDbPolyline
 90
        2
 70
     0
 43
0.0
 10
8.504014490154165
 20
0.5649711891187535
 10
8.471403918155896
 20
0.6499246336248543
  0
LWPOLYLINE
  5
A6D
330
1F
100
AcDbEntity
  8
NETAFIM-L-DETL-013M
100
AcDbPolyline
 90
        2
 70
     0
 43
0.0
 10
8.553964490154164
 20
0.5649711891187535
 10
8.576479131873487
 20
0.725171189118754
  0
LWPOLYLINE
  5
A6E
330
1F
100
AcDbEntity
  8
NETAFIM-L-DETL-013M
100
AcDbPolyline
 90
        2
 70
     0
 43
0.0
 10
8.570614490154163
 20
0.5649711891187535
 10
8.593129131873485
 20
0.725171189118754
  0
LWPOLYLINE
  5
A6F
330
1F
100
AcDbEntity
  8
NETAFIM-L-DETL-013M
100
AcDbPolyline
 90
        2
 70
     0
 43
0.0
 10
8.667363991395372
 20
0.5649711891187535
 10
8.673438897252278
 20
0.6081963903193231
  0
LWPOLYLINE
  5
A70
330
1F
100
AcDbEntity
  8
NETAFIM-L-DETL-013M
100
AcDbPolyline
 90
        2
 70
     0
 43
0.0
 10
8.683787503302859
 20
0.6818305484804972
 10
8.689878633114695
 20
0.725171189118754
  0
LWPOLYLINE
  5
A71
330
1F
100
AcDbEntity
  8
NETAFIM-L-DETL-013M
100
AcDbPolyline
 90
        2
 70
     0
 43
0.0
 10
8.629431695529063
 20
0.6081963903193231
 10
8.631780241607764
 20
0.6249071639793371
  0
LWPOLYLINE
  5
A72
330
1F
100
AcDbEntity
  8
NETAFIM-L-DETL-013M
100
AcDbPolyline
 90
        2
 70
     0
 43
0.0
 10
8.637588325239523
 20
0.6662338263978178
 10
8.639780301579644
 20
0.6818305484804972
  0
LWPOLYLINE
  5
A73
330
1F
100
AcDbEntity
  8
NETAFIM-L-DETL-013M
100
AcDbPolyline
 90
        2
 70
     0
 43
0.0
 10
8.672276386040906
 20
0.6249071639793371
 10
8.678084469672661
 20
0.6662338263978178
  0
LWPOLYLINE
  5
A74
330
1F
100
AcDbEntity
  8
NETAFIM-L-DETL-013M
100
AcDbPolyline
 90
        2
 70
     0
 43
0.0
 10
8.698203727257787
 20
0.6819459879181835
 10
8.704278633114697
 20
0.725171189118754
  0
LWPOLYLINE
  5
A75
330
1F
100
AcDbEntity
  8
NETAFIM-L-DETL-013M
100
AcDbPolyline
 90
        2
 70
     0
 43
0.0
 10
8.808228727257787
 20
0.6819459879181835
 10
8.814303633114693
 20
0.725171189118754
  0
LWPOLYLINE
  5
A76
330
1F
100
AcDbEntity
  8
NETAFIM-L-DETL-013M
100
AcDbPolyline
 90
        2
 70
     0
 43
0.0
 10
8.698203727257787
 20
0.6819459879181835
 10
8.72824122725779
 20
0.6819459879181835
  0
LWPOLYLINE
  5
A77
330
1F
100
AcDbEntity
  8
NETAFIM-L-DETL-013M
100
AcDbPolyline
 90
        2
 70
     0
 43
0.0
 10
8.778191227257789
 20
0.6819459879181835
 10
8.808228727257787
 20
0.6819459879181835
  0
LWPOLYLINE
  5
A78
330
1F
100
AcDbEntity
  8
NETAFIM-L-DETL-013M
100
AcDbPolyline
 90
        2
 70
     0
 43
0.0
 10
8.711801491395373
 20
0.5649711891187535
 10
8.72824122725779
 20
0.6819459879181835
  0
LWPOLYLINE
  5
A79
330
1F
100
AcDbEntity
  8
NETAFIM-L-DETL-013M
100
AcDbPolyline
 90
        2
 70
     0
 43
0.0
 10
8.761751491395372
 20
0.5649711891187535
 10
8.778191227257789
 20
0.6819459879181835
  0
LWPOLYLINE
  5
A7A
330
1F
100
AcDbEntity
  8
NETAFIM-L-DETL-013M
100
AcDbPolyline
 90
        2
 70
     0
 43
0.0
 10
8.683787503302859
 20
0.6818305484804972
 10
8.639780301579644
 20
0.6818305484804972
  0
LWPOLYLINE
  5
A7B
330
1F
100
AcDbEntity
  8
NETAFIM-L-DETL-013M
100
AcDbPolyline
 90
        2
 70
     0
 43
0.0
 10
8.673438897252278
 20
0.6081963903193231
 10
8.629431695529063
 20
0.6081963903193231
  0
LWPOLYLINE
  5
A7C
330
1F
100
AcDbEntity
  8
NETAFIM-L-DETL-013M
100
AcDbPolyline
 90
        2
 70
     0
 43
0.0
 10
8.672276386040906
 20
0.6249071639793371
 10
8.631780241607764
 20
0.6249071639793371
  0
LWPOLYLINE
  5
A7D
330
1F
100
AcDbEntity
  8
NETAFIM-L-DETL-013M
100
AcDbPolyline
 90
        2
 70
     0
 43
0.0
 10
8.678084469672661
 20
0.6662338263978178
 10
8.637588325239523
 20
0.6662338263978178
  0
LWPOLYLINE
  5
A7E
330
1F
100
AcDbEntity
  8
NETAFIM-L-DETL-013M
100
AcDbPolyline
 90
        2
 70
     0
 43
0.0
 10
8.878823340030642
 20
0.6249071639793371
 10
8.853959090316418
 20
0.6249071639793371
  0
LWPOLYLINE
  5
A7F
330
1F
100
AcDbEntity
  8
NETAFIM-L-DETL-013M
100
AcDbPolyline
 90
        2
 70
     0
 43
0.0
 10
8.947086271013084
 20
0.5649711891187535
 10
8.969600912732406
 20
0.725171189118754
  0
LWPOLYLINE
  5
A80
330
1F
100
AcDbEntity
  8
NETAFIM-L-DETL-013M
100
AcDbPolyline
 90
        2
 70
     0
 43
0.0
 10
9.059043472736302
 20
0.5649711891187535
 10
9.081558114455621
 20
0.725171189118754
  0
LWPOLYLINE
  5
A81
330
1F
100
AcDbEntity
  8
NETAFIM-L-DETL-013M
100
AcDbPolyline
 90
        2
 70
     0
 43
0.0
 10
9.060391984643786
 20
0.6818305484804972
 10
9.066483114455625
 20
0.725171189118754
  0
LWPOLYLINE
  5
A82
330
1F
100
AcDbEntity
  8
NETAFIM-L-DETL-013M
100
AcDbPolyline
 90
        2
 70
     0
 43
0.0
 10
8.775267221775955
 20
0.5649711891187535
 10
8.855139995386114
 20
0.725171189118754
  0
LWPOLYLINE
  5
A83
330
1F
100
AcDbEntity
  8
NETAFIM-L-DETL-013M
100
AcDbPolyline
 90
        2
 70
     0
 43
0.0
 10
8.829267221775953
 20
0.5649711891187535
 10
8.837971398315644
 20
0.5860993311793683
  0
LWPOLYLINE
  5
A84
330
1F
100
AcDbEntity
  8
NETAFIM-L-DETL-013M
100
AcDbPolyline
 90
        2
 70
     0
 43
0.0
 10
8.853959090316418
 20
0.6249071639793371
 10
8.876105958546798
 20
0.678665515046256
  0
LWPOLYLINE
  5
A85
330
1F
100
AcDbEntity
  8
NETAFIM-L-DETL-013M
100
AcDbPolyline
 90
        2
 70
     0
 43
0.0
 10
8.933602988542361
 20
0.5649711891187535
 10
8.912512258428861
 20
0.725171189118754
  0
LWPOLYLINE
  5
A86
330
1F
100
AcDbEntity
  8
NETAFIM-L-DETL-013M
100
AcDbPolyline
 90
        2
 70
     0
 43
0.0
 10
8.881852988542362
 20
0.5649711891187535
 10
8.880785001506225
 20
0.5860993311793683
  0
LWPOLYLINE
  5
A87
330
1F
100
AcDbEntity
  8
NETAFIM-L-DETL-013M
100
AcDbPolyline
 90
        2
 70
     0
 43
0.0
 10
8.878823340030642
 20
0.6249071639793371
 10
8.876105958546798
 20
0.678665515046256
  0
LWPOLYLINE
  5
A88
330
1F
100
AcDbEntity
  8
NETAFIM-L-DETL-013M
100
AcDbPolyline
 90
        2
 70
     0
 43
0.0
 10
9.048880867381832
 20
0.6249071639793371
 10
9.054688951013591
 20
0.6662338263978178
  0
LWPOLYLINE
  5
A89
330
1F
100
AcDbEntity
  8
NETAFIM-L-DETL-013M
100
AcDbPolyline
 90
        2
 70
     0
 43
0.0
 10
9.054688951013591
 20
0.6662338263978178
 10
9.014192806580449
 20
0.6662338263978178
  0
LWPOLYLINE
  5
A8A
330
1F
100
AcDbEntity
  8
NETAFIM-L-DETL-013M
100
AcDbPolyline
 90
        2
 70
     0
 43
0.0
 10
9.048880867381832
 20
0.6249071639793371
 10
9.008384722948694
 20
0.6249071639793371
  0
LWPOLYLINE
  5
A8B
330
1F
100
AcDbEntity
  8
NETAFIM-L-DETL-013M
100
AcDbPolyline
 90
        2
 70
     0
 43
0.0
 10
8.999961271013084
 20
0.5649711891187535
 10
9.008384722948694
 20
0.6249071639793371
  0
LWPOLYLINE
  5
A8C
330
1F
100
AcDbEntity
  8
NETAFIM-L-DETL-013M
100
AcDbPolyline
 90
        2
 70
     0
 43
0.0
 10
9.014192806580449
 20
0.6662338263978178
 10
9.016384782920571
 20
0.6818305484804972
  0
LWPOLYLINE
  5
A8D
330
1F
100
AcDbEntity
  8
NETAFIM-L-DETL-013M
100
AcDbPolyline
 90
        2
 70
     0
 43
0.0
 10
8.837971398315644
 20
0.5860993311793683
 10
8.880785001506225
 20
0.5860993311793683
  0
LWPOLYLINE
  5
A8E
330
1F
100
AcDbEntity
  8
NETAFIM-L-DETL-013M
100
AcDbPolyline
 90
        2
 70
     0
 43
0.0
 10
9.060391984643786
 20
0.6818305484804972
 10
9.016384782920571
 20
0.6818305484804972
  0
LWPOLYLINE
  5
A8F
330
1F
100
AcDbEntity
  8
NETAFIM-L-DETL-013M
100
AcDbPolyline
 90
        2
 70
     0
 43
0.0
 10
9.233007043797716
 20
0.6437429821594592
 10
9.222286816977462
 20
0.725171189118754
  0
LWPOLYLINE
  5
A90
330
1F
100
AcDbEntity
  8
NETAFIM-L-DETL-013M
100
AcDbPolyline
 90
        2
 70
     0
 43
0.0
 10
9.204960580050983
 20
0.5649711891187535
 10
9.194590601815551
 20
0.6437389939493868
  0
LWPOLYLINE
  5
A91
330
1F
100
AcDbEntity
  8
NETAFIM-L-DETL-013M
100
AcDbPolyline
 90
        2
 70
     0
 43
0.0
 10
9.269742683095667
 20
0.5649711891187535
 10
9.269742683095667
 20
0.6502987951342672
  0
LWPOLYLINE
  5
A92
330
1F
100
AcDbEntity
  8
NETAFIM-L-DETL-013M
100
AcDbPolyline
 90
        2
 70
     0
 43
0.0
 10
9.122504297234019
 20
0.5649711891187535
 10
9.168440908032582
 20
0.725171189118754
  0
LWPOLYLINE
  5
A93
330
1F
100
AcDbEntity
  8
NETAFIM-L-DETL-013M
100
AcDbPolyline
 90
        2
 70
     0
 43
0.0
 10
9.172004297234021
 20
0.5649711891187535
 10
9.194590601815551
 20
0.6437389939493868
  0
LWPOLYLINE
  5
A94
330
1F
100
AcDbEntity
  8
NETAFIM-L-DETL-013M
100
AcDbPolyline
 90
        2
 70
     0
 43
0.0
 10
9.233007043797716
 20
0.6437429821594592
 10
9.261999315857149
 20
0.725171189118754
  0
LWPOLYLINE
  5
A95
330
1F
100
AcDbEntity
  8
NETAFIM-L-DETL-013M
100
AcDbPolyline
 90
        2
 70
     0
 43
0.0
 10
9.239362041544534
 20
0.5649711891187544
 10
9.269742683095667
 20
0.6502987951342672
  0
LWPOLYLINE
  5
A96
330
1F
100
AcDbEntity
  8
NETAFIM-L-DETL-013M
100
AcDbPolyline
 90
        2
 70
     0
 43
0.0
 10
8.593129131873485
 20
0.725171189118754
 10
8.689878633114695
 20
0.725171189118754
  0
LWPOLYLINE
  5
A97
330
1F
100
AcDbEntity
  8
NETAFIM-L-DETL-013M
100
AcDbPolyline
 90
        2
 70
     0
 43
0.0
 10
9.334881383606692
 20
0.725171189118754
 10
9.334881383606692
 20
0.7204461891187535
  0
LWPOLYLINE
  5
A98
330
1F
100
AcDbEntity
  8
NETAFIM-L-DETL-013M
100
AcDbPolyline
 90
        2
 70
     0
 43
0.0
 10
9.359631383606693
 20
0.725171189118754
 10
9.359631383606693
 20
0.7204461891187535
  0
LWPOLYLINE
  5
A99
330
1F
100
AcDbEntity
  8
NETAFIM-L-DETL-013M
100
AcDbPolyline
 90
        2
 70
     0
 43
0.0
 10
9.363456383606692
 20
0.725171189118754
 10
9.363456383606692
 20
0.695471189118754
  0
LWPOLYLINE
  5
A9A
330
1F
100
AcDbEntity
  8
NETAFIM-L-DETL-013M
100
AcDbPolyline
 90
        2
 70
     0
 43
0.0
 10
9.370206383606692
 20
0.695471189118754
 10
9.370206383606692
 20
0.7169114771485594
  0
LWPOLYLINE
  5
A9B
330
1F
100
AcDbEntity
  8
NETAFIM-L-DETL-013M
100
AcDbPolyline
 90
        2
 70
     0
 43
0.0
 10
9.392031383606692
 20
0.695471189118754
 10
9.392031383606692
 20
0.7169114771485594
  0
LWPOLYLINE
  5
A9C
330
1F
100
AcDbEntity
  8
NETAFIM-L-DETL-013M
100
AcDbPolyline
 90
        2
 70
     0
 43
0.0
 10
9.343881383606689
 20
0.695471189118754
 10
9.343881383606689
 20
0.7204461891187535
  0
LWPOLYLINE
  5
A9D
330
1F
100
AcDbEntity
  8
NETAFIM-L-DETL-013M
100
AcDbPolyline
 90
        2
 70
     0
 43
0.0
 10
9.334881383606692
 20
0.7204461891187535
 10
9.343881383606689
 20
0.7204461891187535
  0
LWPOLYLINE
  5
A9E
330
1F
100
AcDbEntity
  8
NETAFIM-L-DETL-013M
100
AcDbPolyline
 90
        2
 70
     0
 43
0.0
 10
9.350631383606692
 20
0.7204461891187535
 10
9.359631383606693
 20
0.7204461891187535
  0
LWPOLYLINE
  5
A9F
330
1F
100
AcDbEntity
  8
NETAFIM-L-DETL-013M
100
AcDbPolyline
 90
        2
 70
     0
 43
0.0
 10
9.374481383606692
 20
0.725171189118754
 10
9.381118883606692
 20
0.7087429164725388
  0
LWPOLYLINE
  5
AA0
330
1F
100
AcDbEntity
  8
NETAFIM-L-DETL-013M
100
AcDbPolyline
 90
        2
 70
     0
 43
0.0
 10
9.387756383606692
 20
0.725171189118754
 10
9.381118883606692
 20
0.7087429164725388
  0
LWPOLYLINE
  5
AA1
330
1F
100
AcDbEntity
  8
NETAFIM-L-DETL-013M
100
AcDbPolyline
 90
        2
 70
     0
 43
0.0
 10
9.392031383606692
 20
0.7169114771485594
 10
9.383368883606692
 20
0.695471189118754
  0
LWPOLYLINE
  5
AA2
330
1F
100
AcDbEntity
  8
NETAFIM-L-DETL-013M
100
AcDbPolyline
 90
        2
 70
     0
 43
0.0
 10
9.370206383606692
 20
0.7169114771485594
 10
9.378868883606692
 20
0.695471189118754
  0
LWPOLYLINE
  5
AA3
330
1F
100
AcDbEntity
  8
NETAFIM-L-DETL-013M
100
AcDbPolyline
 90
        2
 70
     0
 43
0.0
 10
9.134433114455621
 20
0.725171189118754
 10
9.111918472736302
 20
0.5649711891187535
  0
LWPOLYLINE
  5
AA4
330
1F
100
AcDbEntity
  8
NETAFIM-L-DETL-013M
100
AcDbPolyline
 90
        2
 70
     0
 43
0.0
 10
9.317892683095667
 20
0.5649711891187535
 10
9.317892683095667
 20
0.725171189118754
  0
LWPOLYLINE
  5
AA5
330
1F
100
AcDbEntity
  8
NETAFIM-L-DETL-013M
100
AcDbPolyline
 90
        2
 70
     0
 43
0.0
 10
9.350631383606692
 20
0.695471189118754
 10
9.350631383606692
 20
0.7204461891187535
  0
LWPOLYLINE
  5
AA6
330
1F
100
AcDbEntity
  8
NETAFIM-L-DETL-013M
100
AcDbPolyline
 90
        2
 70
     0
 43
0.0
 10
9.398781383606692
 20
0.695471189118754
 10
9.398781383606692
 20
0.725171189118754
  0
MULTILEADER
  5
AA7
330
1F
100
AcDbEntity
  8
NETAFIM-L-DETL-TEXT-LEADER-025M
 92
      768
310
00030000150000000C00000016000000000000C00C00000013000000993A0000B40000000B000000364B7BA9792718400C6A30F0F9671840000000000000000000000000000000000000000000000000000000000000F03F000000000000F03F0000000000000000000000000000000052454D4F544520434F4E54524F4C20
310
56414C56450000200014000000010000000AD7A3703D0AB73F000000000000F03F0000000000000000000000000000F03F0000000000000000000000000000000000000000726F6D616E732E736878000000000000B80000000B000000F5DE509C4030184072D0965660CE1740000000000000000000000000000000000000
310
000000000000000000000000F03F000000000000F03F000000000000000000000000000000005749544820444953432046494C54455220414E44205052560000650018000000010000000AD7A3703D0AB73F000000000000F03F0000000000000000000000000000F03F000000000000000000000000000000000000000072
310
6F6D616E732E7368780000000000000C00000010000000070000000C00000016000000000000C00C00000012000000FF7F00000C00000013000000010000000C000000140000000100000054000000070000000300000095177CED330E1040A097345CE9191A400000000000000000C853270B89380F40A46CA682494C1A40
310
00000000000000002534A9D8611810404896092696411A4000000000000000000C00000013000000891300003C0000000600000002000000DDA512E34A131040F4161FC1BF2D1A400000000000000000E8A559C23A6C1640CA094B1FD78C184000000000000000000C00000013000000112700003C00000006000000020000
310
00E8A559C23A6C1640CA094B1FD78C1840000000000000000059E36399DEDC1740CA094B1FD78C184000000000000000000C00000016000000000000C00C00000012000000FF7F00000C00000017000000000000000C000000130000009A3A00000C00000016000000000000C00C00000012000000FF7F00000C0000001700
310
0000FFFFFFFF
100
AcDbMLeader
300
CONTEXT_DATA{
 40
1.0
 10
5.965692898484882
 20
6.137539376215906
 30
0.0
 41
0.09
140
0.12
145
0.09
174
     1
175
     1
176
     0
177
     0
290
     1
304
{\Fromans|c0;REMOTE CONTROL VALVE WITH DISC FILTER AND PRV}
 11
0.0
 21
0.0
 31
1.0
340
810
 12
6.055692898484882
 22
6.191539376215906
 32
0.0
 13
1.0
 23
0.0
 33
0.0
 42
0.0
 43
2.045079931307213
 44
0.0
 45
1.0
170
     1
 90
-1073741824
171
     1
172
     5
 91
-1073741824
141
0.0
 92
        0
291
     0
292
     0
173
     0
293
     0
142
0.0
143
0.0
294
     0
295
     0
296
     0
110
3.604357723756073
120
6.541941012051957
130
0.0
111
1.0
121
0.0
131
0.0
112
0.0
122
1.0
132
0.0
297
     0
302
LEADER{
290
     1
291
     1
 10
5.605692898484882
 20
6.137539376215906
 30
0.0
 11
1.0
 21
0.0
 31
0.0
 90
        0
 40
0.36
304
LEADER_LINE{
 10
3.902605139863656
 20
6.574499169738519
 30
0.0
 91
        0
305
}
303
}
301
}
340
813
 90
   279552
170
     1
 91
-1056964608
341
14
171
    -2
290
     1
291
     1
 41
0.36
 42
0.12
172
     2
343
810
173
     1
 95
        1
174
     1
175
     0
 92
-1056964608
292
     0
 93
-1056964608
 10
1.0
 20
1.0
 30
1.0
 43
0.0
176
     0
293
     0
294
     0
178
     0
179
     1
 45
1.0
1001
ACAD_MLEADERVER
1070
     2
  0
MULTILEADER
  5
AA8
330
1F
100
AcDbEntity
  8
NETAFIM-L-DETL-TEXT-LEADER-025M
 92
     1084
310
3C040000170000000C00000016000000000000C00C00000013000000993A0000A80000000B000000D4A8BB15A43418409A3B8905A0421640000000000000000000000000000000000000000000000000000000000000F03F000000000000F03F00000000000000000000000000000000546563686C696E6500007C00080000
310
00010000000AD7A3703D0AB73F000000000000F03F0000000000000000000000000000F03F0000000000000000000000000000000000000000726F6D616E732E7368780000000000009C0000000B0000003D7175E5D2541A409A3B8905A0421640000000000000000000000000000000000000000000000000000000000000
310
F03F000000000000F03F00000000000000000000000000000000AE00000001000000010000000AD7A3703D0AB73F000000000000F03F0000000000000000000000000000F03F0000000000000000000000000000000000000000417269616C00000000000000B00000000B00000077146227E0B31A409A3B8905A042164000
310
0000000000000000000000000000000000000000000000000000000000F03F000000000000F03F0000000000000000000000000000000020535441525420434F4E4E454354494F4E00200011000000010000000AD7A3703D0AB73F000000000000F03F0000000000000000000000000000F03F000000000000000000000000
310
0000000000000000726F6D616E732E736878000000000000B40000000B000000354B7BA97927184001A2EF6B06A91540000000000000000000000000000000000000000000000000000000000000F03F000000000000F03F000000000000000000000000000000004D414C45204144415054455220414E4420544545005052
310
5614000000010000000AD7A3703D0AB73F000000000000F03F0000000000000000000000000000F03F0000000000000000000000000000000000000000726F6D616E732E7368780073007800000C00000010000000070000000C00000016000000000000C00C00000012000000FF7F00000C00000013000000010000000C00
310
00001400000001000000540000000700000003000000753EE45F091B1140E4BB0251A38B17400000000000000000AFA8A8D14BAE10403ABF687B6BC8174000000000000000001E539A2EDF28114098468ACD30B2174000000000000000000C00000013000000891300003C0000000600000002000000CA483F47F42111403E
310
81460FEA9E1740000000000000000098CD81D9618114400E348E8A0F69164000000000000000000C00000013000000112700003C000000060000000200000098CD81D9618114400E348E8A0F691640000000000000000058E36399DEDC17400E348E8A0F69164000000000000000000C00000016000000000000C00C000000
310
12000000FF7F00000C00000017000000000000000C000000130000009A3A00000C00000016000000000000C00C00000012000000FF7F00000C00000017000000FFFFFFFF
100
AcDbMLeader
300
CONTEXT_DATA{
 40
1.0
 10
5.965692898484881
 20
5.602598347596552
 30
0.0
 41
0.09
140
0.12
145
0.09
174
     1
175
     1
176
     0
177
     0
290
     1
304
{\Fromans|c0;Techline}®{\Fromans|c0; START CONNECTION\PMALE ADAPTER AND TEE}
 11
0.0
 21
0.0
 31
1.0
340
810
 12
6.055692898484881
 22
5.656598347596553
 32
0.0
 13
1.0
 23
0.0
 33
0.0
 42
0.0
 43
0.0
 44
0.0
 45
1.0
170
     1
 90
-1073741824
171
     1
172
     5
 91
-1073741824
141
0.0
 92
        0
291
     0
292
     0
173
     0
293
     0
142
0.0
143
0.0
294
     0
295
     0
296
     0
110
3.374696485855345
120
5.984488994664012
130
0.0
111
1.0
121
0.0
131
0.0
112
0.0
122
1.0
132
0.0
297
     0
302
LEADER{
290
     1
291
     1
 10
5.126349829242279
 20
5.602598347596552
 30
0.0
 11
1.0
 21
0.0
 31
0.0
 90
        0
 40
0.8393430692426026
304
LEADER_LINE{
 10
4.170211101454852
 20
5.945722511547325
 30
0.0
 91
        0
305
}
303
}
301
}
340
813
 90
   279680
170
     1
 91
-1056964608
341
14
171
    -2
290
     1
291
     1
 41
0.36
 42
0.12
172
     2
343
810
173
     1
 95
        1
174
     1
175
     0
 92
-1056964608
292
     0
 93
-1056964608
 10
1.0
 20
1.0
 30
1.0
 43
0.0
176
     0
293
     0
294
     0
178
     0
179
     1
 45
1.0
1001
ACAD_MLEADERVER
1070
     2
  0
MULTILEADER
  5
AA9
330
1F
100
AcDbEntity
  8
NETAFIM-L-DETL-TEXT-LEADER-025M
 92
      576
310
40020000140000000C00000016000000000000C00C00000013000000993A0000AC0000000B000000E9508226991318409FFB6C5303740440000000000000000000000000000000000000000000000000000000000000F03F000000000000F03F000000000000000000000000000000004152454120504552494D4554455200
310
4F0E000000010000000AD7A3703D0AB73F000000000000F03F0000000000000000000000000000F03F0000000000000000000000000000000000000000726F6D616E732E7368780073007800000C00000010000000070000000C00000016000000000000C00C00000012000000FF7F00000C00000013000000010000000C00
310
00001400000001000000540000000700000003000000A3CB1473D3D41340F3DE12EFC7940440000000000000000028B7662BF25913401C3BA2B1BDBD04400000000000000000A3CB1473D3D4134045973174B3E6044000000000000000000C00000013000000891300003C0000000600000002000000A3CB1473D3D413401C
310
3BA2B1BDBD044000000000000000001C84B559CC4616401C3BA2B1BDBD044000000000000000000C00000013000000112700003C00000006000000020000001C84B559CC4616401C3BA2B1BDBD044000000000000000008DC1BF3070B717401C3BA2B1BDBD044000000000000000000C00000016000000000000C00C000000
310
12000000FF7F00000C00000017000000000000000C000000130000009A3A00000C00000016000000000000C00C00000012000000FF7F00000C00000017000000FFFFFFFF
100
AcDbMLeader
300
CONTEXT_DATA{
 40
1.0
 10
5.929138910011158
 20
2.592646968615907
 30
0.0
 41
0.09
140
0.12
145
0.09
174
     1
175
     1
176
     0
177
     0
290
     1
304
\A1;{\Fromans|c0;AREA PERIMETER\A0;\fArial|b0|i0|c0|p34; }
 11
0.0
 21
0.0
 31
1.0
340
810
 12
6.019138910011158
 22
2.646646968615907
 32
0.0
 13
1.0
 23
0.0
 33
0.0
 42
0.0
 43
0.0
 44
0.0
 45
1.0
170
     1
 90
-1073741824
171
     1
172
     5
 91
-1073741824
141
0.0
 92
        0
291
     0
292
     0
173
     0
293
     0
142
0.0
143
0.0
294
     0
295
     0
296
     0
110
4.883899935729807
120
2.592646968615907
130
0.0
111
1.0
121
0.0
131
0.0
112
0.0
122
1.0
132
0.0
297
     0
302
LEADER{
290
     1
291
     1
 10
5.569138910011158
 20
2.592646968615907
 30
0.0
 11
1.0
 21
0.0
 31
0.0
 90
        0
 40
0.36
304
LEADER_LINE{
 10
4.837837865967038
 20
2.592646968615907
 30
0.0
 91
        0
305
}
303
}
301
}
340
813
 90
   279552
170
     1
 91
-1056964608
341
14
171
    -2
290
     1
291
     1
 41
0.36
 42
0.12
172
     2
343
810
173
     1
 95
        1
174
     1
175
     0
 92
-1056964608
292
     0
 93
-1056964608
 10
1.0
 20
1.0
 30
1.0
 43
0.0
176
     0
293
     0
294
     0
178
   256
179
     1
 45
1.0
1001
ACAD_MLEADERVER
1070
     2
  0
MULTILEADER
  5
AAA
330
1F
100
AcDbEntity
  8
NETAFIM-L-DETL-TEXT-LEADER-025M
 92
      752
310
F0020000150000000C00000016000000000000C00C00000013000000993A0000B00000000B0000004AF341BA6E06184010811EADF1631140000000000000000000000000000000000000000000000000000000000000F03F000000000000F03F00000000000000000000000000000000534545205350454349464943415449
310
4F4E53000012000000010000000AD7A3703D0AB73F000000000000F03F0000000000000000000000000000F03F0000000000000000000000000000000000000000726F6D616E732E736878000000000000AC0000000B0000006A29D7400B02184076E7841358CA104000000000000000000000000000000000000000000000
310
0000000000000000F03F000000000000F03F00000000000000000000000000000000464F5220524F572053504143494E47000F000000010000000AD7A3703D0AB73F000000000000F03F0000000000000000000000000000F03F0000000000000000000000000000000000000000726F6D616E732E7368780000000037000C
310
00000010000000070000000C00000016000000000000C00C00000012000000FF7F00000C00000013000000010000000C00000014000000010000005400000007000000030000000C89C0107F541140CBFCE6DD64DA12400000000000000000BD840708B028114030A29008034F134000000000000000005972A147F3771140
310
C8CFF4E9E7EE124000000000000000000C00000013000000891300003C0000000600000002000000B2FD302C3966114049E6ED63A6E412400000000000000000784A36A7772F1240CE2039DCCE88114000000000000000000C00000013000000112700003C0000000600000002000000784A36A7772F1240CE2039DCCE8811
310
4000000000000000008CC1BF3070B71740CE2039DCCE88114000000000000000000C00000016000000000000C00C00000012000000FF7F00000C00000017000000000000000C000000130000009A3A00000C00000016000000000000C00C00000012000000FF7F00000C00000017000000FFFFFFFF
100
AcDbMLeader
300
CONTEXT_DATA{
 40
1.0
 10
5.929138910011158
 20
4.383601609217476
 30
0.0
 41
0.09
140
0.12
145
0.09
174
     1
175
     1
176
     0
177
     0
290
     1
304
{\Fromans|c0;SEE SPECIFICATIONS\PFOR ROW SPACING}
 11
0.0
 21
0.0
 31
1.0
340
810
 12
6.019138910011158
 22
4.437601609217477
 32
0.0
 13
1.0
 23
0.0
 33
0.0
 42
0.0
 43
0.0
 44
0.0
 45
1.0
170
     1
 90
-1073741824
171
     1
172
     5
 91
-1073741824
141
0.0
 92
        0
291
     0
292
     0
173
     0
293
     0
142
0.0
143
0.0
294
     0
295
     0
296
     0
110
4.282405735184433
120
4.64985703526791
130
0.0
111
1.0
121
0.0
131
0.0
112
0.0
122
1.0
132
0.0
297
     0
302
LEADER{
290
     1
291
     1
 10
4.546354878128674
 20
4.383601609217476
 30
0.0
 11
1.0
 21
0.0
 31
0.0
 90
        0
 40
1.382784031882483
304
LEADER_LINE{
 10
4.289734006365674
 20
4.827160009219866
 30
0.0
 91
        0
305
}
303
}
301
}
340
813
 90
   279680
170
     1
 91
-1056964608
341
14
171
    -2
290
     1
291
     1
 41
0.36
 42
0.12
172
     2
343
810
173
     1
 95
        1
174
     1
175
     0
 92
-1056964608
292
     0
 93
-1056964608
 10
1.0
 20
1.0
 30
1.0
 43
0.0
176
     0
293
     0
294
     0
178
     0
179
     1
 45
1.0
1001
ACAD_MLEADERVER
1070
     2
  0
MULTILEADER
  5
AAB
330
1F
100
AcDbEntity
  8
NETAFIM-L-DETL-TEXT-LEADER-025M
 92
      756
310
F4020000150000000C00000016000000000000C00C00000013000000993A0000B00000000B000000364B7BA979271840C3FB8A1993500D40000000000000000000000000000000000000000000000000000000000000F03F000000000000F03F00000000000000000000000000000000504552494D45544552204C41544552
310
414C53000012000000010000000AD7A3703D0AB73F000000000000F03F0000000000000000000000000000F03F0000000000000000000000000000000000000000726F6D616E732E736878000000000000B00000000B0000001615E622DD2B18409179011B44FA0B4000000000000000000000000000000000000000000000
310
0000000000000000F03F000000000000F03F00000000000000000000000000000000322220544F2034222046524F4D2045444745000012000000010000000AD7A3703D0AB73F000000000000F03F0000000000000000000000000000F03F0000000000000000000000000000000000000000726F6D616E732E736878000000
310
0000000C00000010000000070000000C00000016000000000000C00C00000012000000FF7F00000C00000013000000010000000C0000001400000001000000540000000700000003000000C95A7292A57B13400E4806B46727104000000000000000001A7DB11D56161340CC12FEBAE56F10400000000000000000A389A379
310
AE8D13406DC4CE562E4C104000000000000000000C00000013000000891300003C000000060000000200000036F20A06AA8413403E866A05CB3910400000000000000000E8A559C23A6C1640403BC0774D9A0D4000000000000000000C00000013000000112700003C0000000600000002000000E8A559C23A6C1640403BC0
310
774D9A0D40000000000000000059E36399DEDC1740403BC0774D9A0D4000000000000000000C00000016000000000000C00C00000012000000FF7F00000C00000017000000000000000C000000130000009A3A00000C00000016000000000000C00C00000012000000FF7F00000C00000017000000FFFFFFFF
100
AcDbMLeader
300
CONTEXT_DATA{
 40
1.0
 10
5.965692898484882
 20
3.700343070558488
 30
0.0
 41
0.09
140
0.12
145
0.09
174
     1
175
     1
176
     0
177
     0
290
     1
304
{\Fromans|c0;PERIMETER LATERALS\P2" TO 4" FROM EDGE}
 11
0.0
 21
0.0
 31
1.0
340
810
 12
6.055692898484882
 22
3.754343070558489
 32
0.0
 13
1.0
 23
0.0
 33
0.0
 42
0.0
 43
2.033229834607809
 44
0.0
 45
1.0
170
     1
 90
-1073741824
171
     1
172
     5
 91
-1073741824
141
0.0
 92
        0
291
     0
292
     0
173
     0
293
     0
142
0.0
143
0.0
294
     0
295
     0
296
     0
110
4.730792313963782
120
4.082908139976026
130
0.0
111
1.0
121
0.0
131
0.0
112
0.0
122
1.0
132
0.0
297
     0
302
LEADER{
290
     1
291
     1
 10
5.605692898484882
 20
3.700343070558488
 30
0.0
 11
1.0
 21
0.0
 31
0.0
 90
        0
 40
0.36
304
LEADER_LINE{
 10
4.771812881429719
 20
4.109274789578829
 30
0.0
 91
        0
305
}
303
}
301
}
340
813
 90
   279552
170
     1
 91
-1056964608
341
14
171
    -2
290
     1
291
     1
 41
0.36
 42
0.12
172
     2
343
810
173
     1
 95
        1
174
     1
175
     0
 92
-1056964608
292
     0
 93
-1056964608
 10
1.0
 20
1.0
 30
1.0
 43
0.0
176
     0
293
     0
294
     0
178
     0
179
     1
 45
1.0
1001
ACAD_MLEADERVER
1070
     2
  0
MULTILEADER
  5
AAC
330
1F
100
AcDbEntity
  8
NETAFIM-L-DETL-TEXT-LEADER-025M
 92
      900
310
84030000160000000C00000016000000000000C00C00000013000000993A0000A80000000B000000D5A8BB15A4341840549B5080F91B0840000000000000000000000000000000000000000000000000000000000000F03F000000000000F03F00000000000000000000000000000000546563686C696E6500007C00080000
310
00010000000AD7A3703D0AB73F000000000000F03F0000000000000000000000000000F03F0000000000000000000000000000000000000000726F6D616E732E7368780000000000009C0000000B0000003E7175E5D2541A409E42662A671A0840000000000000000000000000000000000000000000000000000000000000
310
F03F000000000000F03F00000000000000000000000000000000AE00540001000000010000000AD7A3703D0AB73F000000000000F03F0000000000000000000000000000F03F0000000000000000000000000000000000000000417269616C007D0000000000AC0000000B00000078146227E0B31A40549B5080F91B084000
310
0000000000000000000000000000000000000000000000000000000000F03F000000000000F03F0000000000000000000000000000000020435620445249504C494E45002045440C000000010000000AD7A3703D0AB73F000000000000F03F0000000000000000000000000000F03F00000000000000000000000000000000
310
00000000726F6D616E732E7368780073007800000C00000010000000070000000C00000016000000000000C00C00000012000000FF7F00000C00000013000000010000000C0000001400000001000000540000000700000003000000E53793A86F371240E262622827140B400000000000000000880B68182AC9114068AAEB
310
6311880B4000000000000000008EC41CC645441240035A023DF2610B4000000000000000000C00000013000000891300003C00000006000000020000003AFE57B7DA3D1240725EB2B20C3B0B400000000000000000E8A559C23A6C164068BE7D1D9378084000000000000000000C00000013000000112700003C0000000600
310
000002000000E8A559C23A6C164068BE7D1D93780840000000000000000059E36399DEDC174068BE7D1D9378084000000000000000000C00000016000000000000C00C00000012000000FF7F00000C00000017000000000000000C000000130000009A3A00000C00000016000000000000C00C00000012000000FF7F00000C
310
00000017000000FFFFFFFF
100
AcDbMLeader
300
CONTEXT_DATA{
 40
1.0
 10
5.965692898484882
 20
3.058874349975486
 30
0.0
 41
0.09
140
0.12
145
0.09
174
     1
175
     1
176
     0
177
     0
290
     1
304
\A1;{\Fromans|c0;Techline\A0;\fArial|b0|i0|c0|p34;®\A1;\Fromans|c0; CV DRIPLINE}
 11
0.0
 21
0.0
 31
1.0
340
810
 12
6.055692898484882
 22
3.104426873849974
 32
0.0
 13
1.0
 23
0.0
 33
0.0
 42
0.0
 43
0.0
 44
0.0
 45
1.0
170
     1
 90
-1073741824
171
     1
172
     5
 91
-1073741824
141
0.0
 92
        0
291
     0
292
     0
173
     0
293
     0
142
0.0
143
0.0
294
     0
295
     0
296
     0
110
4.446449643469243
120
3.44143941939301
130
0.0
111
1.0
121
0.0
131
0.0
112
0.0
122
1.0
132
0.0
297
     0
302
LEADER{
290
     1
291
     1
 10
5.605692898484882
 20
3.058874349975486
 30
0.0
 11
1.0
 21
0.0
 31
0.0
 90
        0
 40
0.36
304
LEADER_LINE{
 10
4.446449643469243
 20
3.44143941939301
 30
0.0
 91
        0
305
}
303
}
301
}
340
813
 90
   279552
170
     1
 91
-1056964608
341
14
171
    -2
290
     1
291
     1
 41
0.36
 42
0.12
172
     2
343
810
173
     1
 95
        1
174
     1
175
     0
 92
-1056964608
292
     0
 93
-1056964608
 10
1.0
 20
1.0
 30
1.0
 43
0.0
176
     0
293
     0
294
     0
178
   256
179
     1
 45
1.0
1001
ACAD_MLEADERVER
1070
     2
  0
MULTILEADER
  5
AAD
330
1F
100
AcDbEntity
  8
NETAFIM-L-DETL-TEXT-LEADER-025M
 92
      760
310
F8020000150000000C00000016000000000000C00C00000013000000993A0000B00000000B000000364B7BA9792718402606B192ED04FC3F000000000000000000000000000000000000000000000000000000000000F03F000000000000F03F000000000000000000000000000000004D414E55414C20464C555348205641
310
4C5645000012000000010000000AD7A3703D0AB73F000000000000F03F0000000000000000000000000000F03F0000000000000000000000000000000000000000726F6D616E732E736878000000000000B40000000B000000364B7BA979271840BE9F4A2C879EF93F00000000000000000000000000000000000000000000
310
0000000000000000F03F000000000000F03F00000000000000000000000000000000504C554D42454420544F20505643204F5220504F4C59005616000000010000000AD7A3703D0AB73F000000000000F03F0000000000000000000000000000F03F0000000000000000000000000000000000000000726F6D616E732E7368
310
780073007800000C00000010000000070000000C00000016000000000000C00C00000012000000FF7F00000C00000013000000010000000C0000001400000001000000540000000700000003000000D7C7BC7DBD740F4053B0A19EFBA8EE3F00000000000000005699C95393850E40211B74C9AB91ED3F0000000000000000
310
A9E9585C2A510F40365AA31527D0EF3F00000000000000000C00000013000000891300003C0000000600000002000000C0D80AEDF3620F404485225A913CEF3F0000000000000000E8A559C23A6C164020851B4F6298FC3F00000000000000000C00000013000000112700003C0000000600000002000000E8A559C23A6C16
310
4020851B4F6298FC3F000000000000000059E36399DEDC174020851B4F6298FC3F00000000000000000C00000016000000000000C00C00000012000000FF7F00000C00000017000000000000000C000000130000009A3A00000C00000016000000000000C00C00000012000000FF7F00000C00000017000000FFFFFFFF
100
AcDbMLeader
300
CONTEXT_DATA{
 40
1.0
 10
5.965692898484882
 20
1.78720312978141
 30
0.0
 41
0.09
140
0.12
145
0.09
174
     1
175
     1
176
     0
177
     0
290
     1
304
{\Fromans|c0;MANUAL FLUSH VALVE\PPLUMBED TO PVC OR POLY}
 11
0.0
 21
0.0
 31
1.0
340
810
 12
6.055692898484882
 22
1.84120312978141
 32
0.0
 13
1.0
 23
0.0
 33
0.0
 42
0.0
 43
2.342680692474612
 44
0.0
 45
1.0
170
     1
 90
-1073741824
171
     1
172
     5
 91
-1073741824
141
0.0
 92
        0
291
     0
292
     0
173
     0
293
     0
142
0.0
143
0.0
294
     0
295
     0
296
     0
110
3.473122675027561
120
0.8690468252937009
130
0.0
111
1.0
121
0.0
131
0.0
112
0.0
122
1.0
132
0.0
297
     0
302
LEADER{
290
     1
291
     1
 10
5.605692898484882
 20
1.78720312978141
 30
0.0
 11
1.0
 21
0.0
 31
0.0
 90
        0
 40
0.36
304
LEADER_LINE{
 10
3.815222410764515
 20
0.9240321097030099
 30
0.0
 91
        0
305
}
303
}
301
}
340
813
 90
   279552
170
     1
 91
-1056964608
341
14
171
    -2
290
     1
291
     1
 41
0.36
 42
0.12
172
     2
343
810
173
     1
 95
        1
174
     1
175
     0
 92
-1056964608
292
     0
 93
-1056964608
 10
1.0
 20
1.0
 30
1.0
 43
0.0
176
     0
293
     0
294
     0
178
     0
179
     1
 45
1.0
1001
ACAD_MLEADERVER
1070
     2
  0
MULTILEADER
  5
CCB
330
1F
100
AcDbEntity
  8
NETAFIM-L-DETL-TEXT-LEADER-025M
 92
      588
310
4C020000140000000C00000016000000000000C00C00000013000000993A0000B80000000B000000354B7BA979271840C24859B17D3A0140000000000000000000000000000000000000000000000000000000000000F03F000000000000F03F00000000000000000000000000000000505643204F5220504F4C5920455848
310
415553542048454144455200001A000000010000000AD7A3703D0AB73F000000000000F03F0000000000000000000000000000F03F0000000000000000000000000000000000000000726F6D616E732E7368780000000000000C00000010000000070000000C00000016000000000000C00C00000012000000FF7F00000C00
310
000013000000010000000C00000014000000010000005400000007000000030000003D7AF7E27B6F1040EF480DC9E4AFF43F0000000000000000E80E46CA40051040981ABC769EABF33F00000000000000003F40416CA35410400C5C8045A32BF53F00000000000000000C00000013000000891300003C0000000600000002
310
0000003E5D9CA70F6210407ED24607C4EDF43F00000000000000009870D0D04472144040888E0F3884014000000000000000000C00000013000000112700003C00000006000000020000009870D0D04472144040888E0F38840140000000000000000058E36399DEDC174040888E0F3884014000000000000000000C000000
310
16000000000000C00C00000012000000FF7F00000C00000017000000000000000C000000130000009A3A00000C00000016000000000000C00C00000012000000FF7F00000C00000017000000FFFFFFFF
100
AcDbMLeader
300
CONTEXT_DATA{
 40
1.0
 10
5.965692898484881
 20
2.18956005243038
 30
0.0
 41
0.09
140
0.12
145
0.09
174
     1
175
     1
176
     0
177
     0
290
     1
304
{\Fromans|c0;PVC OR POLY EXHAUST HEADER}
 11
0.0
 21
0.0
 31
1.0
340
810
 12
6.055692898484881
 22
2.24356005243038
 32
0.0
 13
1.0
 23
0.0
 33
0.0
 42
0.0
 43
2.342680692474612
 44
0.0
 45
1.0
170
     1
 90
-1073741824
171
     1
172
     5
 91
-1073741824
141
0.0
 92
        0
291
     0
292
     0
173
     0
293
     0
142
0.0
143
0.0
294
     0
295
     0
296
     0
110
3.473122675027561
120
1.27140374794267
130
0.0
111
1.0
121
0.0
131
0.0
112
0.0
122
1.0
132
0.0
297
     0
302
LEADER{
290
     1
291
     1
 10
5.111590635988385
 20
2.18956005243038
 30
0.0
 11
1.0
 21
0.0
 31
0.0
 90
        0
 40
0.854102262496497
304
LEADER_LINE{
 10
4.005129967237486
 20
1.229399169738519
 30
0.0
 91
        0
305
}
303
}
301
}
340
813
 90
   279680
170
     1
 91
-1056964608
341
14
171
    -2
290
     1
291
     1
 41
0.36
 42
0.12
172
     2
343
810
173
     1
 95
        1
174
     1
175
     0
 92
-1056964608
292
     0
 93
-1056964608
 10
1.0
 20
1.0
 30
1.0
 43
0.0
176
     0
293
     0
294
     0
178
     0
179
     1
 45
1.0
1001
ACAD_MLEADERVER
1070
     2
  0
MULTILEADER
  5
CCE
330
1F
100
AcDbEntity
  8
NETAFIM-L-DETL-TEXT-LEADER-025M
 92
      588
310
4C020000140000000C00000016000000000000C00C00000013000000993A0000B80000000B000000354B7BA979271840A023A15618AD1340000000000000000000000000000000000000000000000000000000000000F03F000000000000F03F00000000000000000000000000000000505643204F5220504F4C5920535550
310
504C592048454144455200000019000000010000000AD7A3703D0AB73F000000000000F03F0000000000000000000000000000F03F0000000000000000000000000000000000000000726F6D616E732E7368780000000000000C00000010000000070000000C00000016000000000000C00C00000012000000FF7F00000C00
310
000013000000010000000C00000014000000010000005400000007000000030000002712F40A7B940B40DBE5241B6D5B17400000000000000000A0CCCBB04BD00A40006BEA7C37A8174000000000000000002A425DA6AFBB0B401D60740C647F174000000000000000000C00000013000000891300003C0000000600000002
310
00000028AAA85815A80B40FCA2CC93686D174000000000000000009870D0D0447214405EC3BB85F5D1134000000000000000000C00000013000000112700003C00000006000000020000009870D0D0447214405EC3BB85F5D11340000000000000000058E36399DEDC17405EC3BB85F5D1134000000000000000000C000000
310
16000000000000C00C00000012000000FF7F00000C00000017000000000000000C000000130000009A3A00000C00000016000000000000C00C00000012000000FF7F00000C00000017000000FFFFFFFF
100
AcDbMLeader
300
CONTEXT_DATA{
 40
1.0
 10
5.965692898484881
 20
4.95503815611377
 30
0.0
 41
0.09
140
0.12
145
0.09
174
     1
175
     1
176
     0
177
     0
290
     1
304
{\Fromans|c0;PVC OR POLY SUPPLY HEADER}
 11
0.0
 21
0.0
 31
1.0
340
810
 12
6.055692898484881
 22
5.009038156113771
 32
0.0
 13
1.0
 23
0.0
 33
0.0
 42
0.0
 43
2.342680692474612
 44
0.0
 45
1.0
170
     1
 90
-1073741824
171
     1
172
     5
 91
-1073741824
141
0.0
 92
        0
291
     0
292
     0
173
     0
293
     0
142
0.0
143
0.0
294
     0
295
     0
296
     0
110
3.473122675027561
120
4.631906661560572
130
0.0
111
1.0
121
0.0
131
0.0
112
0.0
122
1.0
132
0.0
297
     0
302
LEADER{
290
     1
291
     1
 10
5.111590635988385
 20
4.95503815611377
 30
0.0
 11
1.0
 21
0.0
 31
0.0
 90
        0
 40
0.854102262496497
304
LEADER_LINE{
 10
3.351706868380986
 20
5.914274169738519
 30
0.0
 91
        0
305
}
303
}
301
}
340
813
 90
   279680
170
     1
 91
-1056964608
341
14
171
    -2
290
     1
291
     1
 41
0.36
 42
0.12
172
     2
343
810
173
     1
 95
        1
174
     1
175
     0
 92
-1056964608
292
     0
 93
-1056964608
 10
1.0
 20
1.0
 30
1.0
 43
0.0
176
     0
293
     0
294
     0
178
     0
179
     1
 45
1.0
1001
ACAD_MLEADERVER
1070
     2
  0
LINE
  5
CCF
330
1F
100
AcDbEntity
  8
NETAFIM-L-DETL-HIDD-035M
  6
DASHED2
100
AcDbLine
 10
2.514937865967038
 20
6.058799169738518
 30
0.0
 11
4.837837865967038
 21
6.058799169738518
 31
0.0
  0
LINE
  5
CD0
330
1F
100
AcDbEntity
  8
NETAFIM-L-DETL-HIDD-035M
  6
DASHED2
100
AcDbLine
 10
4.837837865967038
 20
6.058799169738518
 30
0.0
 11
4.837837865967038
 21
1.058774169738519
 31
0.0
  0
LINE
  5
CD1
330
1F
100
AcDbEntity
  8
NETAFIM-L-DETL-HIDD-035M
  6
DASHED2
100
AcDbLine
 10
4.837837865967038
 20
1.058774169738519
 30
0.0
 11
2.514937865967038
 21
1.058774169738519
 31
0.0
  0
LINE
  5
CD2
330
1F
100
AcDbEntity
  8
NETAFIM-L-DETL-HIDD-035M
  6
DASHED2
100
AcDbLine
 10
2.514937865967038
 20
1.058774169738519
 30
0.0
 11
2.514937865967038
 21
6.058799169738518
 31
0.0
  0
LINE
  5
CD3
330
1F
100
AcDbEntity
  8
NETAFIM-L-DETL-025M-TUBING
  6
Continuous
100
AcDbLine
 10
2.584920877456625
 20
1.198537707275011
 30
0.0
 11
2.582445877456624
 21
5.95406270727501
 31
0.0
  0
LINE
  5
CD4
330
1F
100
AcDbEntity
  8
NETAFIM-L-DETL-025M
  6
Continuous
100
AcDbLine
 10
3.587812865967038
 20
1.251524169738519
 30
0.0
 11
3.785737865967039
 21
1.251524169738519
 31
0.0
  0
LINE
  5
CD5
330
1F
100
AcDbEntity
  8
NETAFIM-L-DETL-025M
  6
Continuous
100
AcDbLine
 10
3.785737865967039
 20
1.251524169738519
 30
0.0
 11
3.785737865967039
 21
1.136924169738519
 31
0.0
  0
LINE
  5
CD6
330
1F
100
AcDbEntity
  8
NETAFIM-L-DETL-025M
  6
Continuous
100
AcDbLine
 10
3.785737865967039
 20
1.136924169738519
 30
0.0
 11
3.746662865967039
 21
1.136924169738519
 31
0.0
  0
LINE
  5
CD7
330
1F
100
AcDbEntity
  8
NETAFIM-L-DETL-025M
  6
Continuous
100
AcDbLine
 10
3.746662865967039
 20
1.136924169738519
 30
0.0
 11
3.746662865967039
 21
1.100474169738519
 31
0.0
  0
LINE
  5
CD8
330
1F
100
AcDbEntity
  8
NETAFIM-L-DETL-025M
  6
Continuous
100
AcDbLine
 10
3.746662865967039
 20
1.100474169738519
 30
0.0
 11
3.62951286596704
 21
1.100474169738519
 31
0.0
  0
LINE
  5
CD9
330
1F
100
AcDbEntity
  8
NETAFIM-L-DETL-025M
  6
Continuous
100
AcDbLine
 10
3.62951286596704
 20
1.100474169738519
 30
0.0
 11
3.62951286596704
 21
1.134299169738519
 31
0.0
  0
LINE
  5
CDA
330
1F
100
AcDbEntity
  8
NETAFIM-L-DETL-025M
  6
Continuous
100
AcDbLine
 10
3.62951286596704
 20
1.134299169738519
 30
0.0
 11
3.587812865967038
 21
1.134299169738519
 31
0.0
  0
LINE
  5
CDB
330
1F
100
AcDbEntity
  8
NETAFIM-L-DETL-025M
  6
Continuous
100
AcDbLine
 10
3.587812865967038
 20
1.134299169738519
 30
0.0
 11
3.587812865967038
 21
1.251524169738519
 31
0.0
  0
LINE
  5
CDC
330
1F
100
AcDbEntity
  8
NETAFIM-L-DETL-025M
  6
Continuous
100
AcDbLine
 10
3.573225365967036
 20
5.894175916213953
 30
0.0
 11
3.771075365967039
 21
5.894175916213953
 31
0.0
  0
LINE
  5
CDD
330
1F
100
AcDbEntity
  8
NETAFIM-L-DETL-025M
  6
Continuous
100
AcDbLine
 10
3.771075365967039
 20
5.894175916213953
 30
0.0
 11
3.771075365967039
 21
6.008700916213951
 31
0.0
  0
LINE
  5
CDE
330
1F
100
AcDbEntity
  8
NETAFIM-L-DETL-025M
  6
Continuous
100
AcDbLine
 10
3.771075365967039
 20
6.008700916213951
 30
0.0
 11
3.732075365967038
 21
6.008700916213951
 31
0.0
  0
LINE
  5
CDF
330
1F
100
AcDbEntity
  8
NETAFIM-L-DETL-025M
  6
Continuous
100
AcDbLine
 10
3.732075365967038
 20
6.008700916213951
 30
0.0
 11
3.732075365967038
 21
6.045225916213952
 31
0.0
  0
LINE
  5
CE0
330
1F
100
AcDbEntity
  8
NETAFIM-L-DETL-025M
  6
Continuous
100
AcDbLine
 10
3.732075365967038
 20
6.045225916213952
 30
0.0
 11
3.614850365967036
 21
6.045225916213952
 31
0.0
  0
LINE
  5
CE1
330
1F
100
AcDbEntity
  8
NETAFIM-L-DETL-025M
  6
Continuous
100
AcDbLine
 10
3.614850365967036
 20
6.045225916213952
 30
0.0
 11
3.614850365967036
 21
6.011325916213953
 31
0.0
  0
LINE
  5
CE2
330
1F
100
AcDbEntity
  8
NETAFIM-L-DETL-025M
  6
Continuous
100
AcDbLine
 10
3.614850365967036
 20
6.011325916213953
 30
0.0
 11
3.573225365967036
 21
6.011325916213953
 31
0.0
  0
LINE
  5
CE3
330
1F
100
AcDbEntity
  8
NETAFIM-L-DETL-025M
  6
Continuous
100
AcDbLine
 10
3.573225365967036
 20
6.011325916213953
 30
0.0
 11
3.573225365967036
 21
5.894175916213953
 31
0.0
  0
LINE
  5
CE4
330
1F
100
AcDbEntity
  8
NETAFIM-L-DETL-035M
  6
Continuous
100
AcDbLine
 10
3.587812865967038
 20
1.148624169738519
 30
0.0
 11
2.556562865967038
 21
1.148624169738519
 31
0.0
  0
LINE
  5
CE5
330
1F
100
AcDbEntity
  8
NETAFIM-L-DETL-035M
  6
Continuous
100
AcDbLine
 10
2.556562865967038
 20
1.148624169738519
 30
0.0
 11
2.556562865967038
 21
1.229399169738519
 31
0.0
  0
LINE
  5
CE6
330
1F
100
AcDbEntity
  8
NETAFIM-L-DETL-035M
  6
Continuous
100
AcDbLine
 10
2.556562865967038
 20
1.229399169738519
 30
0.0
 11
3.587812865967038
 21
1.229399169738519
 31
0.0
  0
LINE
  5
CE7
330
1F
100
AcDbEntity
  8
NETAFIM-L-DETL-035M
  6
Continuous
100
AcDbLine
 10
3.785737865967039
 20
1.229399169738519
 30
0.0
 11
4.806562865967038
 21
1.229399169738519
 31
0.0
  0
LINE
  5
CE8
330
1F
100
AcDbEntity
  8
NETAFIM-L-DETL-035M
  6
Continuous
100
AcDbLine
 10
4.806562865967038
 20
1.229399169738519
 30
0.0
 11
4.806562865967038
 21
1.148624169738519
 31
0.0
  0
LINE
  5
CE9
330
1F
100
AcDbEntity
  8
NETAFIM-L-DETL-035M
  6
Continuous
100
AcDbLine
 10
4.806562865967038
 20
1.148624169738519
 30
0.0
 11
3.785737865967039
 21
1.148624169738519
 31
0.0
  0
LINE
  5
CEA
330
1F
100
AcDbEntity
  8
NETAFIM-L-DETL-035M
  6
Continuous
100
AcDbLine
 10
3.713867639863654
 20
6.134999169738522
 30
0.0
 11
3.713867639863654
 21
6.045225916213952
 31
0.0
  0
LINE
  5
CEB
330
1F
100
AcDbEntity
  8
NETAFIM-L-DETL-035M
  6
Continuous
100
AcDbLine
 10
3.633092639863651
 20
6.045225916213952
 30
0.0
 11
3.633092639863651
 21
6.13499916973852
 31
0.0
  0
LINE
  5
CEC
330
1F
100
AcDbEntity
  8
NETAFIM-L-DETL-035M
  6
Continuous
100
AcDbLine
 10
2.546137865967036
 20
5.994974169738519
 30
0.0
 11
3.573225365967036
 21
5.994974169738519
 31
0.0
  0
LINE
  5
CED
330
1F
100
AcDbEntity
  8
NETAFIM-L-DETL-035M
  6
Continuous
100
AcDbLine
 10
3.771075365967039
 20
5.994974169738519
 30
0.0
 11
4.796137865967036
 21
5.994974169738519
 31
0.0
  0
LINE
  5
CEE
330
1F
100
AcDbEntity
  8
NETAFIM-L-DETL-035M
  6
Continuous
100
AcDbLine
 10
4.796137865967036
 20
5.994974169738519
 30
0.0
 11
4.796137865967036
 21
5.914274169738519
 31
0.0
  0
LINE
  5
CEF
330
1F
100
AcDbEntity
  8
NETAFIM-L-DETL-035M
  6
Continuous
100
AcDbLine
 10
4.796137865967036
 20
5.914274169738519
 30
0.0
 11
3.771075365967039
 21
5.914274169738519
 31
0.0
  0
LINE
  5
CF0
330
1F
100
AcDbEntity
  8
NETAFIM-L-DETL-035M
  6
Continuous
100
AcDbLine
 10
3.573225365967036
 20
5.914274169738519
 30
0.0
 11
2.546137865967036
 21
5.914274169738519
 31
0.0
  0
LINE
  5
CF1
330
1F
100
AcDbEntity
  8
NETAFIM-L-DETL-035M
  6
Continuous
100
AcDbLine
 10
2.546137865967036
 20
5.914274169738519
 30
0.0
 11
2.546137865967036
 21
5.994974169738519
 31
0.0
  0
LINE
  5
CF2
330
1F
100
AcDbEntity
  8
NETAFIM-L-DETL-035M
  6
Continuous
100
AcDbLine
 10
3.727162865967038
 20
1.100474169738519
 30
0.0
 11
3.727162865967038
 21
1.030013010199255
 31
0.0
  0
LINE
  5
CF3
330
1F
100
AcDbEntity
  8
NETAFIM-L-DETL-035M
  6
Continuous
100
AcDbLine
 10
3.646462865967038
 20
1.033294650061932
 30
0.0
 11
3.646462865967038
 21
1.100474169738519
 31
0.0
  0
ARC
  5
CF4
330
1F
100
AcDbEntity
  8
NETAFIM-L-DETL-035M
  6
Continuous
100
AcDbCircle
 10
3.681562865966995
 20
0.9025491697385037
 30
0.0
 40
0.1353749999999956
100
AcDbArc
 50
115.7874585180341
 51
115.242779645503
  0
ARC
  5
CF5
330
1F
100
AcDbEntity
  8
NETAFIM-L-DETL-025M-TUBING
  6
Continuous
100
AcDbCircle
 10
2.618109465745778
 20
5.954266511193401
 30
0.0
 40
0.0138904450245243
100
AcDbArc
 50
359.9999999999945
 51
29.01955162933563
  0
ARC
  5
CF6
330
1F
100
AcDbEntity
  8
NETAFIM-L-DETL-025M-TUBING
  6
Continuous
100
AcDbCircle
 10
2.612950206348852
 20
5.951404385084972
 30
0.0
 40
0.0197904215825563
100
AcDbArc
 50
29.01955162935199
 51
53.25277257202152
  0
ARC
  5
CF7
330
1F
100
AcDbEntity
  8
NETAFIM-L-DETL-025M-TUBING
  6
Continuous
100
AcDbCircle
 10
2.609584064100669
 20
5.946896118889812
 30
0.0
 40
0.0254167327827468
100
AcDbArc
 50
53.2527725720213
 51
72.81437923352389
  0
ARC
  5
CF8
330
1F
100
AcDbEntity
  8
NETAFIM-L-DETL-025M-TUBING
  6
Continuous
100
AcDbCircle
 10
2.607385562539114
 20
5.939787592982133
 30
0.0
 40
0.0328574686130474
100
AcDbArc
 50
72.81437923349685
 51
90.0
  0
ARC
  5
CF9
330
1F
100
AcDbEntity
  8
NETAFIM-L-DETL-025M-TUBING
  6
Continuous
100
AcDbCircle
 10
2.607385562539114
 20
5.939787592982119
 30
0.0
 40
0.0328574686130621
100
AcDbArc
 50
90.0
 51
107.1856207665
  0
ARC
  5
CFA
330
1F
100
AcDbEntity
  8
NETAFIM-L-DETL-025M-TUBING
  6
Continuous
100
AcDbCircle
 10
2.605187060977566
 20
5.946896118889807
 30
0.0
 40
0.0254167327827547
100
AcDbArc
 50
107.1856207664927
 51
126.7472274279835
  0
ARC
  5
CFB
330
1F
100
AcDbEntity
  8
NETAFIM-L-DETL-025M-TUBING
  6
Continuous
100
AcDbCircle
 10
2.601820918729377
 20
5.95140438508498
 30
0.0
 40
0.0197904215825464
100
AcDbArc
 50
126.7472274279853
 51
150.9804483706673
  0
ARC
  5
CFC
330
1F
100
AcDbEntity
  8
NETAFIM-L-DETL-025M-TUBING
  6
Continuous
100
AcDbCircle
 10
2.59666165933245
 20
5.954266511193399
 30
0.0
 40
0.0138904450245199
100
AcDbArc
 50
150.9804483706535
 51
180.0
  0
ARC
  5
CFD
330
1F
100
AcDbEntity
  8
NETAFIM-L-DETL-025M-TUBING
  6
Continuous
100
AcDbCircle
 10
2.59666165933245
 20
5.954266511193399
 30
0.0
 40
0.013890445024523
100
AcDbArc
 50
180.0
 51
209.0195516293456
  0
ARC
  5
CFE
330
1F
100
AcDbEntity
  8
NETAFIM-L-DETL-025M-TUBING
  6
Continuous
100
AcDbCircle
 10
2.60182091872938
 20
5.957128637301821
 30
0.0
 40
0.0197904215825514
100
AcDbArc
 50
209.0195516293424
 51
233.2527725720154
  0
ARC
  5
CFF
330
1F
100
AcDbEntity
  8
NETAFIM-L-DETL-025M-TUBING
  6
Continuous
100
AcDbCircle
 10
2.605187060977563
 20
5.961636903496987
 30
0.0
 40
0.0254167327827505
100
AcDbArc
 50
233.2527725720201
 51
252.8143792335199
  0
ARC
  5
D00
330
1F
100
AcDbEntity
  8
NETAFIM-L-DETL-025M-TUBING
  6
Continuous
100
AcDbCircle
 10
2.607385562539114
 20
5.968745429404666
 30
0.0
 40
0.0328574686130486
100
AcDbArc
 50
252.8143792334975
 51
270.0
  0
ARC
  5
D01
330
1F
100
AcDbEntity
  8
NETAFIM-L-DETL-025M-TUBING
  6
Continuous
100
AcDbCircle
 10
2.607385562539114
 20
5.968745429404707
 30
0.0
 40
0.03285746861309
100
AcDbArc
 50
270.0
 51
287.185620766485
  0
ARC
  5
D02
330
1F
100
AcDbEntity
  8
NETAFIM-L-DETL-025M-TUBING
  6
Continuous
100
AcDbCircle
 10
2.609584064100651
 20
5.961636903497005
 30
0.0
 40
0.0254167327827748
100
AcDbArc
 50
287.185620766507
 51
306.7472274279836
  0
ARC
  5
D03
330
1F
100
AcDbEntity
  8
NETAFIM-L-DETL-025M-TUBING
  6
Continuous
100
AcDbCircle
 10
2.612950206348855
 20
5.957128637301819
 30
0.0
 40
0.0197904215825478
100
AcDbArc
 50
306.7472274279776
 51
330.9804483706606
  0
ARC
  5
D04
330
1F
100
AcDbEntity
  8
NETAFIM-L-DETL-025M-TUBING
  6
Continuous
100
AcDbCircle
 10
2.618109465745781
 20
5.954266511193395
 30
0.0
 40
0.0138904450245197
100
AcDbArc
 50
330.9804483706659
 51
0.000000000010992
  0
ARC
  5
D05
330
1F
100
AcDbEntity
  8
NETAFIM-L-DETL-025M-TUBING
  6
Continuous
100
AcDbCircle
 10
4.450401548075252
 20
5.954266511193401
 30
0.0
 40
0.0138904450245243
100
AcDbArc
 50
359.9999999999945
 51
29.01955162933563
  0
ARC
  5
D06
330
1F
100
AcDbEntity
  8
NETAFIM-L-DETL-025M-TUBING
  6
Continuous
100
AcDbCircle
 10
4.445242288678322
 20
5.951404385084972
 30
0.0
 40
0.0197904215825563
100
AcDbArc
 50
29.01955162935199
 51
53.25277257202152
  0
ARC
  5
D07
330
1F
100
AcDbEntity
  8
NETAFIM-L-DETL-025M-TUBING
  6
Continuous
100
AcDbCircle
 10
4.441876146430143
 20
5.946896118889812
 30
0.0
 40
0.0254167327827468
100
AcDbArc
 50
53.2527725720213
 51
72.81437923352389
  0
ARC
  5
D08
330
1F
100
AcDbEntity
  8
NETAFIM-L-DETL-025M-TUBING
  6
Continuous
100
AcDbCircle
 10
4.439677644868588
 20
5.939787592982133
 30
0.0
 40
0.0328574686130474
100
AcDbArc
 50
72.81437923349685
 51
90.0
  0
ARC
  5
D09
330
1F
100
AcDbEntity
  8
NETAFIM-L-DETL-025M-TUBING
  6
Continuous
100
AcDbCircle
 10
4.439677644868588
 20
5.939787592982119
 30
0.0
 40
0.0328574686130621
100
AcDbArc
 50
90.0
 51
107.1856207665
  0
ARC
  5
D0A
330
1F
100
AcDbEntity
  8
NETAFIM-L-DETL-025M-TUBING
  6
Continuous
100
AcDbCircle
 10
4.43747914330704
 20
5.946896118889807
 30
0.0
 40
0.0254167327827547
100
AcDbArc
 50
107.1856207664927
 51
126.7472274279835
  0
ARC
  5
D0B
330
1F
100
AcDbEntity
  8
NETAFIM-L-DETL-025M-TUBING
  6
Continuous
100
AcDbCircle
 10
4.43411300105885
 20
5.951404385084979
 30
0.0
 40
0.0197904215825478
100
AcDbArc
 50
126.7472274279776
 51
150.9804483706605
  0
ARC
  5
D0C
330
1F
100
AcDbEntity
  8
NETAFIM-L-DETL-025M-TUBING
  6
Continuous
100
AcDbCircle
 10
4.428953741661921
 20
5.954266511193401
 30
0.0
 40
0.0138904450245186
100
AcDbArc
 50
150.9804483706631
 51
180.000000000011
  0
ARC
  5
D0D
330
1F
100
AcDbEntity
  8
NETAFIM-L-DETL-025M-TUBING
  6
Continuous
100
AcDbCircle
 10
4.428953741661924
 20
5.954266511193399
 30
0.0
 40
0.013890445024523
100
AcDbArc
 50
180.0
 51
209.0195516293456
  0
ARC
  5
D0E
330
1F
100
AcDbEntity
  8
NETAFIM-L-DETL-025M-TUBING
  6
Continuous
100
AcDbCircle
 10
4.43411300105885
 20
5.957128637301821
 30
0.0
 40
0.0197904215825514
100
AcDbArc
 50
209.0195516293424
 51
233.2527725720154
  0
ARC
  5
D0F
330
1F
100
AcDbEntity
  8
NETAFIM-L-DETL-025M-TUBING
  6
Continuous
100
AcDbCircle
 10
4.437479143307033
 20
5.961636903496987
 30
0.0
 40
0.0254167327827505
100
AcDbArc
 50
233.2527725720201
 51
252.8143792335199
  0
ARC
  5
D10
330
1F
100
AcDbEntity
  8
NETAFIM-L-DETL-025M-TUBING
  6
Continuous
100
AcDbCircle
 10
4.439677644868588
 20
5.968745429404666
 30
0.0
 40
0.0328574686130486
100
AcDbArc
 50
252.8143792334975
 51
270.0
  0
ARC
  5
D11
330
1F
100
AcDbEntity
  8
NETAFIM-L-DETL-025M-TUBING
  6
Continuous
100
AcDbCircle
 10
4.439677644868588
 20
5.968745429404707
 30
0.0
 40
0.03285746861309
100
AcDbArc
 50
270.0
 51
287.185620766485
  0
ARC
  5
D12
330
1F
100
AcDbEntity
  8
NETAFIM-L-DETL-025M-TUBING
  6
Continuous
100
AcDbCircle
 10
4.441876146430125
 20
5.961636903497005
 30
0.0
 40
0.0254167327827748
100
AcDbArc
 50
287.185620766507
 51
306.7472274279836
  0
ARC
  5
D13
330
1F
100
AcDbEntity
  8
NETAFIM-L-DETL-025M-TUBING
  6
Continuous
100
AcDbCircle
 10
4.445242288678326
 20
5.957128637301819
 30
0.0
 40
0.0197904215825478
100
AcDbArc
 50
306.7472274279776
 51
330.9804483706606
  0
ARC
  5
D14
330
1F
100
AcDbEntity
  8
NETAFIM-L-DETL-025M-TUBING
  6
Continuous
100
AcDbCircle
 10
4.450401548075252
 20
5.954266511193395
 30
0.0
 40
0.0138904450245197
100
AcDbArc
 50
330.9804483706659
 51
0.000000000010992
  0
ARC
  5
D15
330
1F
100
AcDbEntity
  8
NETAFIM-L-DETL-025M-TUBING
  6
Continuous
100
AcDbCircle
 10
2.620625727050637
 20
1.193175203297084
 30
0.0
 40
0.0138904450245243
100
AcDbArc
 50
359.9999999999931
 51
29.01955162933436
  0
ARC
  5
D16
330
1F
100
AcDbEntity
  8
NETAFIM-L-DETL-025M-TUBING
  6
Continuous
100
AcDbCircle
 10
2.615466467653707
 20
1.190313077188655
 30
0.0
 40
0.0197904215825562
100
AcDbArc
 50
29.01955162935112
 51
53.25277257202078
  0
ARC
  5
D17
330
1F
100
AcDbEntity
  8
NETAFIM-L-DETL-025M-TUBING
  6
Continuous
100
AcDbCircle
 10
2.612100325405531
 20
1.185804810993495
 30
0.0
 40
0.0254167327827471
100
AcDbArc
 50
53.25277257202152
 51
72.81437923352412
  0
ARC
  5
D18
330
1F
100
AcDbEntity
  8
NETAFIM-L-DETL-025M-TUBING
  6
Continuous
100
AcDbCircle
 10
2.609901823843973
 20
1.178696285085816
 30
0.0
 40
0.032857468613047
100
AcDbArc
 50
72.81437923349642
 51
90.0
  0
ARC
  5
D19
330
1F
100
AcDbEntity
  8
NETAFIM-L-DETL-025M-TUBING
  6
Continuous
100
AcDbCircle
 10
2.609901823843973
 20
1.178696285085806
 30
0.0
 40
0.0328574686130577
100
AcDbArc
 50
90.0
 51
107.1856207665
  0
ARC
  5
D1A
330
1F
100
AcDbEntity
  8
NETAFIM-L-DETL-025M-TUBING
  6
Continuous
100
AcDbCircle
 10
2.607703322282425
 20
1.185804810993485
 30
0.0
 40
0.0254167327827591
100
AcDbArc
 50
107.1856207664865
 51
126.7472274279767
  0
ARC
  5
D1B
330
1F
100
AcDbEntity
  8
NETAFIM-L-DETL-025M-TUBING
  6
Continuous
100
AcDbCircle
 10
2.604337180034235
 20
1.190313077188664
 30
0.0
 40
0.0197904215825454
100
AcDbArc
 50
126.7472274279828
 51
150.9804483706664
  0
ARC
  5
D1C
330
1F
100
AcDbEntity
  8
NETAFIM-L-DETL-025M-TUBING
  6
Continuous
100
AcDbCircle
 10
2.599177920637306
 20
1.193175203297081
 30
0.0
 40
0.013890445024519
100
AcDbArc
 50
150.9804483706485
 51
179.9999999999972
  0
ARC
  5
D1D
330
1F
100
AcDbEntity
  8
NETAFIM-L-DETL-025M-TUBING
  6
Continuous
100
AcDbCircle
 10
2.599177920637309
 20
1.193175203297082
 30
0.0
 40
0.0138904450245217
100
AcDbArc
 50
180.0
 51
209.0195516293484
  0
ARC
  5
D1E
330
1F
100
AcDbEntity
  8
NETAFIM-L-DETL-025M-TUBING
  6
Continuous
100
AcDbCircle
 10
2.604337180034239
 20
1.196037329405503
 30
0.0
 40
0.0197904215825501
100
AcDbArc
 50
209.0195516293432
 51
233.2527725720177
  0
ARC
  5
D1F
330
1F
100
AcDbEntity
  8
NETAFIM-L-DETL-025M-TUBING
  6
Continuous
100
AcDbCircle
 10
2.607703322282421
 20
1.200545595600671
 30
0.0
 40
0.0254167327827513
100
AcDbArc
 50
233.2527725720213
 51
252.8143792335205
  0
ARC
  5
D20
330
1F
100
AcDbEntity
  8
NETAFIM-L-DETL-025M-TUBING
  6
Continuous
100
AcDbCircle
 10
2.609901823843973
 20
1.207654121508348
 30
0.0
 40
0.032857468613048
100
AcDbArc
 50
252.8143792334973
 51
270.0
  0
ARC
  5
D21
330
1F
100
AcDbEntity
  8
NETAFIM-L-DETL-025M-TUBING
  6
Continuous
100
AcDbCircle
 10
2.609901823843973
 20
1.20765412150839
 30
0.0
 40
0.0328574686130897
100
AcDbArc
 50
270.0
 51
287.1856207664853
  0
ARC
  5
D22
330
1F
100
AcDbEntity
  8
NETAFIM-L-DETL-025M-TUBING
  6
Continuous
100
AcDbCircle
 10
2.61210032540551
 20
1.20054559560069
 30
0.0
 40
0.0254167327827754
100
AcDbArc
 50
287.1856207665064
 51
306.7472274279827
  0
ARC
  5
D23
330
1F
100
AcDbEntity
  8
NETAFIM-L-DETL-025M-TUBING
  6
Continuous
100
AcDbCircle
 10
2.615466467653714
 20
1.196037329405502
 30
0.0
 40
0.0197904215825483
100
AcDbArc
 50
306.7472274279765
 51
330.980448370659
  0
ARC
  5
D24
330
1F
100
AcDbEntity
  8
NETAFIM-L-DETL-025M-TUBING
  6
Continuous
100
AcDbCircle
 10
2.62062572705064
 20
1.19317520329708
 30
0.0
 40
0.0138904450245202
100
AcDbArc
 50
330.9804483706622
 51
0.0000000000069209
  0
TEXT
  5
D25
330
1F
100
AcDbEntity
  8
NETAFIM-D-TEXT-025M
  6
Continuous
100
AcDbText
 10
3.574420008824138
 20
0.8525491697385037
 30
0.0
 40
0.1
  1
MF
  7
DETAIL TEXT
 72
     1
 11
3.681562865966995
 21
0.9025491697385037
 31
0.0
100
AcDbText
 73
     2
  0
LINE
  5
D26
330
1F
100
AcDbEntity
  8
NETAFIM-L-DETL-025M-TUBING
  6
Continuous
100
AcDbLine
 10
2.634167705851726
 20
1.198537707275011
 30
0.0
 11
2.633180344051563
 21
3.095678606155515
 31
0.0
  0
ARC
  5
D27
330
1F
100
AcDbEntity
  8
NETAFIM-L-DETL-025M-TUBING
  6
Continuous
100
AcDbCircle
 10
2.924374413137208
 20
5.954266511193397
 30
0.0
 40
0.0138904450245243
100
AcDbArc
 50
0.000000000005496
 51
29.01955162934799
  0
ARC
  5
D28
330
1F
100
AcDbEntity
  8
NETAFIM-L-DETL-025M-TUBING
  6
Continuous
100
AcDbCircle
 10
2.919215153740278
 20
5.951404385084972
 30
0.0
 40
0.0197904215825563
100
AcDbArc
 50
29.01955162935199
 51
53.25277257202152
  0
ARC
  5
D29
330
1F
100
AcDbEntity
  8
NETAFIM-L-DETL-025M-TUBING
  6
Continuous
100
AcDbCircle
 10
2.915849011492102
 20
5.946896118889817
 30
0.0
 40
0.0254167327827436
100
AcDbArc
 50
53.25277257201592
 51
72.81437923351815
  0
ARC
  5
D2A
330
1F
100
AcDbEntity
  8
NETAFIM-L-DETL-025M-TUBING
  6
Continuous
100
AcDbCircle
 10
2.913650509930544
 20
5.939787592982133
 30
0.0
 40
0.0328574686130474
100
AcDbArc
 50
72.81437923349685
 51
90.0
  0
ARC
  5
D2B
330
1F
100
AcDbEntity
  8
NETAFIM-L-DETL-025M-TUBING
  6
Continuous
100
AcDbCircle
 10
2.913650509930544
 20
5.939787592982119
 30
0.0
 40
0.0328574686130621
100
AcDbArc
 50
90.0
 51
107.1856207665
  0
ARC
  5
D2C
330
1F
100
AcDbEntity
  8
NETAFIM-L-DETL-025M-TUBING
  6
Continuous
100
AcDbCircle
 10
2.911452008368996
 20
5.946896118889807
 30
0.0
 40
0.0254167327827547
100
AcDbArc
 50
107.1856207664927
 51
126.7472274279835
  0
ARC
  5
D2D
330
1F
100
AcDbEntity
  8
NETAFIM-L-DETL-025M-TUBING
  6
Continuous
100
AcDbCircle
 10
2.908085866120806
 20
5.951404385084979
 30
0.0
 40
0.0197904215825478
100
AcDbArc
 50
126.7472274279776
 51
150.9804483706605
  0
ARC
  5
D2E
330
1F
100
AcDbEntity
  8
NETAFIM-L-DETL-025M-TUBING
  6
Continuous
100
AcDbCircle
 10
2.90292660672388
 20
5.954266511193399
 30
0.0
 40
0.0138904450245199
100
AcDbArc
 50
150.9804483706535
 51
180.0
  0
ARC
  5
D2F
330
1F
100
AcDbEntity
  8
NETAFIM-L-DETL-025M-TUBING
  6
Continuous
100
AcDbCircle
 10
2.902926606723884
 20
5.954266511193401
 30
0.0
 40
0.013890445024523
100
AcDbArc
 50
180.000000000011
 51
209.0195516293581
  0
ARC
  5
D30
330
1F
100
AcDbEntity
  8
NETAFIM-L-DETL-025M-TUBING
  6
Continuous
100
AcDbCircle
 10
2.90808586612081
 20
5.957128637301821
 30
0.0
 40
0.0197904215825502
100
AcDbArc
 50
209.019551629344
 51
233.2527725720185
  0
ARC
  5
D31
330
1F
100
AcDbEntity
  8
NETAFIM-L-DETL-025M-TUBING
  6
Continuous
100
AcDbCircle
 10
2.911452008368993
 20
5.961636903496984
 30
0.0
 40
0.0254167327827465
100
AcDbArc
 50
233.2527725720169
 51
252.8143792335173
  0
ARC
  5
D32
330
1F
100
AcDbEntity
  8
NETAFIM-L-DETL-025M-TUBING
  6
Continuous
100
AcDbCircle
 10
2.913650509930544
 20
5.96874542940467
 30
0.0
 40
0.0328574686130524
100
AcDbArc
 50
252.8143792334994
 51
270.0000000000022
  0
ARC
  5
D33
330
1F
100
AcDbEntity
  8
NETAFIM-L-DETL-025M-TUBING
  6
Continuous
100
AcDbCircle
 10
2.913650509930544
 20
5.968745429404703
 30
0.0
 40
0.032857468613086
100
AcDbArc
 50
270.0
 51
287.1856207664848
  0
ARC
  5
D34
330
1F
100
AcDbEntity
  8
NETAFIM-L-DETL-025M-TUBING
  6
Continuous
100
AcDbCircle
 10
2.915849011492081
 20
5.961636903497005
 30
0.0
 40
0.0254167327827748
100
AcDbArc
 50
287.185620766507
 51
306.7472274279836
  0
ARC
  5
D35
330
1F
100
AcDbEntity
  8
NETAFIM-L-DETL-025M-TUBING
  6
Continuous
100
AcDbCircle
 10
2.919215153740285
 20
5.957128637301819
 30
0.0
 40
0.0197904215825478
100
AcDbArc
 50
306.7472274279776
 51
330.9804483706606
  0
ARC
  5
D36
330
1F
100
AcDbEntity
  8
NETAFIM-L-DETL-025M-TUBING
  6
Continuous
100
AcDbCircle
 10
2.924374413137211
 20
5.954266511193399
 30
0.0
 40
0.0138904450245199
100
AcDbArc
 50
330.9804483706535
 51
0.0
  0
LINE
  5
D37
330
1F
100
AcDbEntity
  8
NETAFIM-L-DETL-025M-TUBING
  6
Continuous
100
AcDbLine
 10
2.940432653243156
 20
1.198537707275011
 30
0.0
 11
2.939445291442993
 21
3.095678606155515
 31
0.0
  0
LINE
  5
D38
330
1F
100
AcDbEntity
  8
NETAFIM-L-DETL-025M-TUBING
  6
Continuous
100
AcDbLine
 10
2.891185824848054
 20
1.198537707275011
 30
0.0
 11
2.890198463047891
 21
3.095678606155515
 31
0.0
  0
ARC
  5
D39
330
1F
100
AcDbEntity
  8
NETAFIM-L-DETL-025M-TUBING
  6
Continuous
100
AcDbCircle
 10
2.926890674442066
 20
1.19317520329708
 30
0.0
 40
0.0138904450245256
100
AcDbArc
 50
0.0000000000040711
 51
29.01955162934402
  0
ARC
  5
D3A
330
1F
100
AcDbEntity
  8
NETAFIM-L-DETL-025M-TUBING
  6
Continuous
100
AcDbCircle
 10
2.92173141504514
 20
1.190313077188658
 30
0.0
 40
0.0197904215825547
100
AcDbArc
 50
29.0195516293436
 51
53.25277257201266
  0
ARC
  5
D3B
330
1F
100
AcDbEntity
  8
NETAFIM-L-DETL-025M-TUBING
  6
Continuous
100
AcDbCircle
 10
2.918365272796961
 20
1.185804810993495
 30
0.0
 40
0.0254167327827471
100
AcDbArc
 50
53.25277257202152
 51
72.81437923352412
  0
ARC
  5
D3C
330
1F
100
AcDbEntity
  8
NETAFIM-L-DETL-025M-TUBING
  6
Continuous
100
AcDbCircle
 10
2.916166771235406
 20
1.178696285085816
 30
0.0
 40
0.032857468613047
100
AcDbArc
 50
72.81437923349642
 51
90.0
  0
ARC
  5
D3D
330
1F
100
AcDbEntity
  8
NETAFIM-L-DETL-025M-TUBING
  6
Continuous
100
AcDbCircle
 10
2.916166771235406
 20
1.178696285085801
 30
0.0
 40
0.0328574686130621
100
AcDbArc
 50
90.0
 51
107.1856207665
  0
ARC
  5
D3E
330
1F
100
AcDbEntity
  8
NETAFIM-L-DETL-025M-TUBING
  6
Continuous
100
AcDbCircle
 10
2.913968269673855
 20
1.185804810993489
 30
0.0
 40
0.025416732782756
100
AcDbArc
 50
107.1856207664918
 51
126.7472274279817
  0
ARC
  5
D3F
330
1F
100
AcDbEntity
  8
NETAFIM-L-DETL-025M-TUBING
  6
Continuous
100
AcDbCircle
 10
2.910602127425665
 20
1.190313077188662
 30
0.0
 40
0.0197904215825478
100
AcDbArc
 50
126.7472274279776
 51
150.9804483706605
  0
ARC
  5
D40
330
1F
100
AcDbEntity
  8
NETAFIM-L-DETL-025M-TUBING
  6
Continuous
100
AcDbCircle
 10
2.905442868028739
 20
1.193175203297084
 30
0.0
 40
0.0138904450245191
100
AcDbArc
 50
150.9804483706593
 51
180.0000000000068
  0
ARC
  5
D41
330
1F
100
AcDbEntity
  8
NETAFIM-L-DETL-025M-TUBING
  6
Continuous
100
AcDbCircle
 10
2.905442868028742
 20
1.193175203297082
 30
0.0
 40
0.013890445024523
100
AcDbArc
 50
180.0
 51
209.0195516293456
  0
ARC
  5
D42
330
1F
100
AcDbEntity
  8
NETAFIM-L-DETL-025M-TUBING
  6
Continuous
100
AcDbCircle
 10
2.910602127425669
 20
1.196037329405503
 30
0.0
 40
0.0197904215825512
100
AcDbArc
 50
209.0195516293415
 51
233.2527725720147
  0
ARC
  5
D43
330
1F
100
AcDbEntity
  8
NETAFIM-L-DETL-025M-TUBING
  6
Continuous
100
AcDbCircle
 10
2.913968269673851
 20
1.200545595600668
 30
0.0
 40
0.0254167327827484
100
AcDbArc
 50
233.2527725720165
 51
252.8143792335152
  0
ARC
  5
D44
330
1F
100
AcDbEntity
  8
NETAFIM-L-DETL-025M-TUBING
  6
Continuous
100
AcDbCircle
 10
2.916166771235406
 20
1.207654121508353
 30
0.0
 40
0.0328574686130528
100
AcDbArc
 50
252.8143792334973
 51
270.0
  0
ARC
  5
D45
330
1F
100
AcDbEntity
  8
NETAFIM-L-DETL-025M-TUBING
  6
Continuous
100
AcDbCircle
 10
2.916166771235406
 20
1.207654121508385
 30
0.0
 40
0.0328574686130854
100
AcDbArc
 50
270.0000000000022
 51
287.1856207664874
  0
ARC
  5
D46
330
1F
100
AcDbEntity
  8
NETAFIM-L-DETL-025M-TUBING
  6
Continuous
100
AcDbCircle
 10
2.918365272796943
 20
1.200545595600694
 30
0.0
 40
0.025416732782779
100
AcDbArc
 50
287.1856207665039
 51
306.7472274279802
  0
ARC
  5
D47
330
1F
100
AcDbEntity
  8
NETAFIM-L-DETL-025M-TUBING
  6
Continuous
100
AcDbCircle
 10
2.921731415045144
 20
1.196037329405499
 30
0.0
 40
0.0197904215825464
100
AcDbArc
 50
306.7472274279853
 51
330.9804483706673
  0
ARC
  5
D48
330
1F
100
AcDbEntity
  8
NETAFIM-L-DETL-025M-TUBING
  6
Continuous
100
AcDbCircle
 10
2.92689067444207
 20
1.193175203297083
 30
0.0
 40
0.0138904450245215
100
AcDbArc
 50
330.9804483706526
 51
359.9999999999959
  0
ARC
  5
D49
330
1F
100
AcDbEntity
  8
NETAFIM-L-DETL-025M-TUBING
  6
Continuous
100
AcDbCircle
 10
3.233874553634887
 20
5.954266511193397
 30
0.0
 40
0.0138904450245243
100
AcDbArc
 50
0.000000000005496
 51
29.01955162934799
  0
ARC
  5
D4A
330
1F
100
AcDbEntity
  8
NETAFIM-L-DETL-025M-TUBING
  6
Continuous
100
AcDbCircle
 10
3.228715294237957
 20
5.951404385084975
 30
0.0
 40
0.0197904215825539
100
AcDbArc
 50
29.01955162934715
 51
53.25277257201697
  0
ARC
  5
D4B
330
1F
100
AcDbEntity
  8
NETAFIM-L-DETL-025M-TUBING
  6
Continuous
100
AcDbCircle
 10
3.225349151989778
 20
5.946896118889812
 30
0.0
 40
0.0254167327827468
100
AcDbArc
 50
53.2527725720213
 51
72.81437923352389
  0
ARC
  5
D4C
330
1F
100
AcDbEntity
  8
NETAFIM-L-DETL-025M-TUBING
  6
Continuous
100
AcDbCircle
 10
3.223150650428223
 20
5.939787592982133
 30
0.0
 40
0.0328574686130474
100
AcDbArc
 50
72.81437923349685
 51
90.0
  0
ARC
  5
D4D
330
1F
100
AcDbEntity
  8
NETAFIM-L-DETL-025M-TUBING
  6
Continuous
100
AcDbCircle
 10
3.223150650428223
 20
5.939787592982119
 30
0.0
 40
0.0328574686130621
100
AcDbArc
 50
90.0
 51
107.1856207665
  0
ARC
  5
D4E
330
1F
100
AcDbEntity
  8
NETAFIM-L-DETL-025M-TUBING
  6
Continuous
100
AcDbCircle
 10
3.220952148866675
 20
5.946896118889807
 30
0.0
 40
0.0254167327827547
100
AcDbArc
 50
107.1856207664927
 51
126.7472274279835
  0
ARC
  5
D4F
330
1F
100
AcDbEntity
  8
NETAFIM-L-DETL-025M-TUBING
  6
Continuous
100
AcDbCircle
 10
3.217586006618486
 20
5.95140438508498
 30
0.0
 40
0.0197904215825456
100
AcDbArc
 50
126.7472274279823
 51
150.9804483706655
  0
ARC
  5
D50
330
1F
100
AcDbEntity
  8
NETAFIM-L-DETL-025M-TUBING
  6
Continuous
100
AcDbCircle
 10
3.212426747221556
 20
5.954266511193399
 30
0.0
 40
0.0138904450245187
100
AcDbArc
 50
150.9804483706509
 51
180.0
  0
ARC
  5
D51
330
1F
100
AcDbEntity
  8
NETAFIM-L-DETL-025M-TUBING
  6
Continuous
100
AcDbCircle
 10
3.212426747221559
 20
5.954266511193399
 30
0.0
 40
0.0138904450245217
100
AcDbArc
 50
180.0
 51
209.0195516293484
  0
ARC
  5
D52
330
1F
100
AcDbEntity
  8
NETAFIM-L-DETL-025M-TUBING
  6
Continuous
100
AcDbCircle
 10
3.217586006618486
 20
5.957128637301821
 30
0.0
 40
0.0197904215825502
100
AcDbArc
 50
209.019551629344
 51
233.2527725720185
  0
ARC
  5
D53
330
1F
100
AcDbEntity
  8
NETAFIM-L-DETL-025M-TUBING
  6
Continuous
100
AcDbCircle
 10
3.220952148866668
 20
5.961636903496984
 30
0.0
 40
0.0254167327827465
100
AcDbArc
 50
233.2527725720169
 51
252.8143792335173
  0
ARC
  5
D54
330
1F
100
AcDbEntity
  8
NETAFIM-L-DETL-025M-TUBING
  6
Continuous
100
AcDbCircle
 10
3.223150650428223
 20
5.96874542940467
 30
0.0
 40
0.0328574686130524
100
AcDbArc
 50
252.8143792334994
 51
270.0000000000022
  0
ARC
  5
D55
330
1F
100
AcDbEntity
  8
NETAFIM-L-DETL-025M-TUBING
  6
Continuous
100
AcDbCircle
 10
3.223150650428223
 20
5.968745429404703
 30
0.0
 40
0.032857468613086
100
AcDbArc
 50
270.0
 51
287.1856207664848
  0
ARC
  5
D56
330
1F
100
AcDbEntity
  8
NETAFIM-L-DETL-025M-TUBING
  6
Continuous
100
AcDbCircle
 10
3.22534915198976
 20
5.96163690349701
 30
0.0
 40
0.0254167327827782
100
AcDbArc
 50
287.1856207665015
 51
306.7472274279781
  0
ARC
  5
D57
330
1F
100
AcDbEntity
  8
NETAFIM-L-DETL-025M-TUBING
  6
Continuous
100
AcDbCircle
 10
3.228715294237964
 20
5.957128637301815
 30
0.0
 40
0.0197904215825456
100
AcDbArc
 50
306.7472274279823
 51
330.9804483706656
  0
ARC
  5
D58
330
1F
100
AcDbEntity
  8
NETAFIM-L-DETL-025M-TUBING
  6
Continuous
100
AcDbCircle
 10
3.233874553634887
 20
5.954266511193399
 30
0.0
 40
0.0138904450245199
100
AcDbArc
 50
330.9804483706535
 51
0.0
  0
LINE
  5
D59
330
1F
100
AcDbEntity
  8
NETAFIM-L-DETL-025M-TUBING
  6
Continuous
100
AcDbLine
 10
3.249932793740835
 20
1.198537707275011
 30
0.0
 11
3.24897363052765
 21
3.041497157531685
 31
0.0
  0
LINE
  5
D5A
330
1F
100
AcDbEntity
  8
NETAFIM-L-DETL-025M-TUBING
  6
Continuous
100
AcDbLine
 10
3.200685965345734
 20
1.198537707275011
 30
0.0
 11
3.19969860354557
 21
3.095678606155516
 31
0.0
  0
ARC
  5
D5B
330
1F
100
AcDbEntity
  8
NETAFIM-L-DETL-025M-TUBING
  6
Continuous
100
AcDbCircle
 10
3.236390814939742
 20
1.193175203297084
 30
0.0
 40
0.0138904450245243
100
AcDbArc
 50
359.9999999999931
 51
29.01955162933436
  0
ARC
  5
D5C
330
1F
100
AcDbEntity
  8
NETAFIM-L-DETL-025M-TUBING
  6
Continuous
100
AcDbCircle
 10
3.231231555542816
 20
1.190313077188655
 30
0.0
 40
0.0197904215825562
100
AcDbArc
 50
29.01955162935112
 51
53.25277257202078
  0
ARC
  5
D5D
330
1F
100
AcDbEntity
  8
NETAFIM-L-DETL-025M-TUBING
  6
Continuous
100
AcDbCircle
 10
3.22786541329464
 20
1.185804810993495
 30
0.0
 40
0.0254167327827471
100
AcDbArc
 50
53.25277257202152
 51
72.81437923352412
  0
ARC
  5
D5E
330
1F
100
AcDbEntity
  8
NETAFIM-L-DETL-025M-TUBING
  6
Continuous
100
AcDbCircle
 10
3.225666911733082
 20
1.178696285085816
 30
0.0
 40
0.032857468613047
100
AcDbArc
 50
72.81437923349642
 51
90.0
  0
ARC
  5
D5F
330
1F
100
AcDbEntity
  8
NETAFIM-L-DETL-025M-TUBING
  6
Continuous
100
AcDbCircle
 10
3.225666911733082
 20
1.178696285085801
 30
0.0
 40
0.0328574686130621
100
AcDbArc
 50
90.0
 51
107.1856207665
  0
ARC
  5
D60
330
1F
100
AcDbEntity
  8
NETAFIM-L-DETL-025M-TUBING
  6
Continuous
100
AcDbCircle
 10
3.223468410171534
 20
1.185804810993489
 30
0.0
 40
0.025416732782756
100
AcDbArc
 50
107.1856207664918
 51
126.7472274279817
  0
ARC
  5
D61
330
1F
100
AcDbEntity
  8
NETAFIM-L-DETL-025M-TUBING
  6
Continuous
100
AcDbCircle
 10
3.220102267923344
 20
1.190313077188664
 30
0.0
 40
0.0197904215825462
100
AcDbArc
 50
126.7472274279858
 51
150.980448370668
  0
ARC
  5
D62
330
1F
100
AcDbEntity
  8
NETAFIM-L-DETL-025M-TUBING
  6
Continuous
100
AcDbCircle
 10
3.214943008526418
 20
1.193175203297081
 30
0.0
 40
0.0138904450245202
100
AcDbArc
 50
150.980448370651
 51
179.9999999999972
  0
ARC
  5
D63
330
1F
100
AcDbEntity
  8
NETAFIM-L-DETL-025M-TUBING
  6
Continuous
100
AcDbCircle
 10
3.214943008526422
 20
1.193175203297082
 30
0.0
 40
0.013890445024523
100
AcDbArc
 50
180.0
 51
209.0195516293456
  0
ARC
  5
D64
330
1F
100
AcDbEntity
  8
NETAFIM-L-DETL-025M-TUBING
  6
Continuous
100
AcDbCircle
 10
3.220102267923348
 20
1.196037329405503
 30
0.0
 40
0.0197904215825512
100
AcDbArc
 50
209.0195516293415
 51
233.2527725720147
  0
ARC
  5
D65
330
1F
100
AcDbEntity
  8
NETAFIM-L-DETL-025M-TUBING
  6
Continuous
100
AcDbCircle
 10
3.22346841017153
 20
1.200545595600671
 30
0.0
 40
0.0254167327827513
100
AcDbArc
 50
233.2527725720213
 51
252.8143792335205
  0
ARC
  5
D66
330
1F
100
AcDbEntity
  8
NETAFIM-L-DETL-025M-TUBING
  6
Continuous
100
AcDbCircle
 10
3.225666911733082
 20
1.207654121508348
 30
0.0
 40
0.032857468613048
100
AcDbArc
 50
252.8143792334973
 51
270.0
  0
ARC
  5
D67
330
1F
100
AcDbEntity
  8
NETAFIM-L-DETL-025M-TUBING
  6
Continuous
100
AcDbCircle
 10
3.225666911733082
 20
1.20765412150839
 30
0.0
 40
0.0328574686130897
100
AcDbArc
 50
270.0
 51
287.1856207664853
  0
ARC
  5
D68
330
1F
100
AcDbEntity
  8
NETAFIM-L-DETL-025M-TUBING
  6
Continuous
100
AcDbCircle
 10
3.227865413294619
 20
1.20054559560069
 30
0.0
 40
0.0254167327827754
100
AcDbArc
 50
287.1856207665064
 51
306.7472274279827
  0
ARC
  5
D69
330
1F
100
AcDbEntity
  8
NETAFIM-L-DETL-025M-TUBING
  6
Continuous
100
AcDbCircle
 10
3.231231555542823
 20
1.196037329405502
 30
0.0
 40
0.0197904215825483
100
AcDbArc
 50
306.7472274279765
 51
330.980448370659
  0
ARC
  5
D6A
330
1F
100
AcDbEntity
  8
NETAFIM-L-DETL-025M-TUBING
  6
Continuous
100
AcDbCircle
 10
3.236390814939749
 20
1.19317520329708
 30
0.0
 40
0.0138904450245202
100
AcDbArc
 50
330.9804483706622
 51
0.0000000000069209
  0
ARC
  5
D6B
330
1F
100
AcDbEntity
  8
NETAFIM-L-DETL-025M-TUBING
  6
Continuous
100
AcDbCircle
 10
3.527198728601323
 20
5.954266511193397
 30
0.0
 40
0.0138904450245256
100
AcDbArc
 50
0.000000000005496
 51
29.01955162934525
  0
ARC
  5
D6C
330
1F
100
AcDbEntity
  8
NETAFIM-L-DETL-025M-TUBING
  6
Continuous
100
AcDbCircle
 10
3.522039469204397
 20
5.951404385084972
 30
0.0
 40
0.0197904215825563
100
AcDbArc
 50
29.01955162935199
 51
53.25277257202152
  0
ARC
  5
D6D
330
1F
100
AcDbEntity
  8
NETAFIM-L-DETL-025M-TUBING
  6
Continuous
100
AcDbCircle
 10
3.518673326956221
 20
5.946896118889817
 30
0.0
 40
0.0254167327827428
100
AcDbArc
 50
53.25277257201824
 51
72.81437923352114
  0
ARC
  5
D6E
330
1F
100
AcDbEntity
  8
NETAFIM-L-DETL-025M-TUBING
  6
Continuous
100
AcDbCircle
 10
3.516474825394663
 20
5.939787592982133
 30
0.0
 40
0.0328574686130474
100
AcDbArc
 50
72.81437923349685
 51
90.0
  0
ARC
  5
D6F
330
1F
100
AcDbEntity
  8
NETAFIM-L-DETL-025M-TUBING
  6
Continuous
100
AcDbCircle
 10
3.516474825394663
 20
5.939787592982119
 30
0.0
 40
0.0328574686130621
100
AcDbArc
 50
90.0
 51
107.1856207665
  0
ARC
  5
D70
330
1F
100
AcDbEntity
  8
NETAFIM-L-DETL-025M-TUBING
  6
Continuous
100
AcDbCircle
 10
3.514276323833115
 20
5.946896118889807
 30
0.0
 40
0.0254167327827547
100
AcDbArc
 50
107.1856207664927
 51
126.7472274279835
  0
ARC
  5
D71
330
1F
100
AcDbEntity
  8
NETAFIM-L-DETL-025M-TUBING
  6
Continuous
100
AcDbCircle
 10
3.510910181584925
 20
5.951404385084979
 30
0.0
 40
0.0197904215825478
100
AcDbArc
 50
126.7472274279776
 51
150.9804483706605
  0
ARC
  5
D72
330
1F
100
AcDbEntity
  8
NETAFIM-L-DETL-025M-TUBING
  6
Continuous
100
AcDbCircle
 10
3.505750922187996
 20
5.954266511193401
 30
0.0
 40
0.0138904450245186
100
AcDbArc
 50
150.9804483706631
 51
180.000000000011
  0
ARC
  5
D73
330
1F
100
AcDbEntity
  8
NETAFIM-L-DETL-025M-TUBING
  6
Continuous
100
AcDbCircle
 10
3.505750922188003
 20
5.954266511193395
 30
0.0
 40
0.0138904450245217
100
AcDbArc
 50
179.999999999989
 51
209.019551629336
  0
ARC
  5
D74
330
1F
100
AcDbEntity
  8
NETAFIM-L-DETL-025M-TUBING
  6
Continuous
100
AcDbCircle
 10
3.510910181584929
 20
5.957128637301824
 30
0.0
 40
0.0197904215825533
100
AcDbArc
 50
209.0195516293524
 51
233.2527725720253
  0
ARC
  5
D75
330
1F
100
AcDbEntity
  8
NETAFIM-L-DETL-025M-TUBING
  6
Continuous
100
AcDbCircle
 10
3.514276323833112
 20
5.961636903496984
 30
0.0
 40
0.0254167327827473
100
AcDbArc
 50
233.2527725720147
 51
252.8143792335143
  0
ARC
  5
D76
330
1F
100
AcDbEntity
  8
NETAFIM-L-DETL-025M-TUBING
  6
Continuous
100
AcDbCircle
 10
3.516474825394663
 20
5.96874542940467
 30
0.0
 40
0.0328574686130528
100
AcDbArc
 50
252.8143792334973
 51
270.0
  0
ARC
  5
D77
330
1F
100
AcDbEntity
  8
NETAFIM-L-DETL-025M-TUBING
  6
Continuous
100
AcDbCircle
 10
3.516474825394663
 20
5.968745429404703
 30
0.0
 40
0.032857468613086
100
AcDbArc
 50
270.0000000000022
 51
287.185620766487
  0
ARC
  5
D78
330
1F
100
AcDbEntity
  8
NETAFIM-L-DETL-025M-TUBING
  6
Continuous
100
AcDbCircle
 10
3.5186733269562
 20
5.961636903497005
 30
0.0
 40
0.0254167327827748
100
AcDbArc
 50
287.185620766507
 51
306.7472274279836
  0
ARC
  5
D79
330
1F
100
AcDbEntity
  8
NETAFIM-L-DETL-025M-TUBING
  6
Continuous
100
AcDbCircle
 10
3.522039469204404
 20
5.957128637301819
 30
0.0
 40
0.0197904215825478
100
AcDbArc
 50
306.7472274279776
 51
330.9804483706606
  0
ARC
  5
D7A
330
1F
100
AcDbEntity
  8
NETAFIM-L-DETL-025M-TUBING
  6
Continuous
100
AcDbCircle
 10
3.52719872860133
 20
5.954266511193399
 30
0.0
 40
0.013890445024521
100
AcDbArc
 50
330.9804483706563
 51
0.0
  0
LINE
  5
D7B
330
1F
100
AcDbEntity
  8
NETAFIM-L-DETL-025M-TUBING
  6
Continuous
100
AcDbLine
 10
3.543256968707275
 20
1.198537707275011
 30
0.0
 11
3.542269606907108
 21
3.095678606155516
 31
0.0
  0
LINE
  5
D7C
330
1F
100
AcDbEntity
  8
NETAFIM-L-DETL-025M-TUBING
  6
Continuous
100
AcDbLine
 10
3.494010140312173
 20
1.198537707275011
 30
0.0
 11
3.491535140312176
 21
5.95406270727501
 31
0.0
  0
ARC
  5
D7D
330
1F
100
AcDbEntity
  8
NETAFIM-L-DETL-025M-TUBING
  6
Continuous
100
AcDbCircle
 10
3.529714989906185
 20
1.193175203297084
 30
0.0
 40
0.0138904450245243
100
AcDbArc
 50
359.9999999999931
 51
29.01955162933436
  0
ARC
  5
D7E
330
1F
100
AcDbEntity
  8
NETAFIM-L-DETL-025M-TUBING
  6
Continuous
100
AcDbCircle
 10
3.524555730509259
 20
1.190313077188655
 30
0.0
 40
0.0197904215825562
100
AcDbArc
 50
29.01955162935112
 51
53.25277257202078
  0
ARC
  5
D7F
330
1F
100
AcDbEntity
  8
NETAFIM-L-DETL-025M-TUBING
  6
Continuous
100
AcDbCircle
 10
3.521189588261076
 20
1.185804810993499
 30
0.0
 40
0.0254167327827439
100
AcDbArc
 50
53.25277257201633
 51
72.81437923351859
  0
ARC
  5
D80
330
1F
100
AcDbEntity
  8
NETAFIM-L-DETL-025M-TUBING
  6
Continuous
100
AcDbCircle
 10
3.518991086699521
 20
1.178696285085812
 30
0.0
 40
0.0328574686130516
100
AcDbArc
 50
72.81437923349662
 51
90.0
  0
ARC
  5
D81
330
1F
100
AcDbEntity
  8
NETAFIM-L-DETL-025M-TUBING
  6
Continuous
100
AcDbCircle
 10
3.518991086699525
 20
1.178696285085806
 30
0.0
 40
0.0328574686130577
100
AcDbArc
 50
90.00000000000222
 51
107.1856207665023
  0
ARC
  5
D82
330
1F
100
AcDbEntity
  8
NETAFIM-L-DETL-025M-TUBING
  6
Continuous
100
AcDbCircle
 10
3.516792585137974
 20
1.185804810993489
 30
0.0
 40
0.025416732782756
100
AcDbArc
 50
107.1856207664918
 51
126.7472274279817
  0
ARC
  5
D83
330
1F
100
AcDbEntity
  8
NETAFIM-L-DETL-025M-TUBING
  6
Continuous
100
AcDbCircle
 10
3.513426442889784
 20
1.190313077188662
 30
0.0
 40
0.0197904215825478
100
AcDbArc
 50
126.7472274279776
 51
150.9804483706605
  0
ARC
  5
D84
330
1F
100
AcDbEntity
  8
NETAFIM-L-DETL-025M-TUBING
  6
Continuous
100
AcDbCircle
 10
3.508267183492858
 20
1.193175203297081
 30
0.0
 40
0.0138904450245202
100
AcDbArc
 50
150.980448370651
 51
179.9999999999972
  0
ARC
  5
D85
330
1F
100
AcDbEntity
  8
NETAFIM-L-DETL-025M-TUBING
  6
Continuous
100
AcDbCircle
 10
3.508267183492858
 20
1.193175203297085
 30
0.0
 40
0.013890445024523
100
AcDbArc
 50
180.000000000011
 51
209.0195516293581
  0
ARC
  5
D86
330
1F
100
AcDbEntity
  8
NETAFIM-L-DETL-025M-TUBING
  6
Continuous
100
AcDbCircle
 10
3.513426442889787
 20
1.196037329405503
 30
0.0
 40
0.0197904215825501
100
AcDbArc
 50
209.0195516293432
 51
233.2527725720177
  0
ARC
  5
D87
330
1F
100
AcDbEntity
  8
NETAFIM-L-DETL-025M-TUBING
  6
Continuous
100
AcDbCircle
 10
3.51679258513797
 20
1.200545595600668
 30
0.0
 40
0.0254167327827476
100
AcDbArc
 50
233.2527725720188
 51
252.8143792335179
  0
ARC
  5
D88
330
1F
100
AcDbEntity
  8
NETAFIM-L-DETL-025M-TUBING
  6
Continuous
100
AcDbCircle
 10
3.518991086699521
 20
1.207654121508348
 30
0.0
 40
0.032857468613048
100
AcDbArc
 50
252.8143792334973
 51
270.0
  0
ARC
  5
D89
330
1F
100
AcDbEntity
  8
NETAFIM-L-DETL-025M-TUBING
  6
Continuous
100
AcDbCircle
 10
3.518991086699521
 20
1.20765412150839
 30
0.0
 40
0.0328574686130897
100
AcDbArc
 50
270.0
 51
287.1856207664853
  0
ARC
  5
D8A
330
1F
100
AcDbEntity
  8
NETAFIM-L-DETL-025M-TUBING
  6
Continuous
100
AcDbCircle
 10
3.521189588261059
 20
1.20054559560069
 30
0.0
 40
0.0254167327827754
100
AcDbArc
 50
287.1856207665064
 51
306.7472274279827
  0
ARC
  5
D8B
330
1F
100
AcDbEntity
  8
NETAFIM-L-DETL-025M-TUBING
  6
Continuous
100
AcDbCircle
 10
3.524555730509263
 20
1.196037329405502
 30
0.0
 40
0.0197904215825483
100
AcDbArc
 50
306.7472274279765
 51
330.980448370659
  0
ARC
  5
D8C
330
1F
100
AcDbEntity
  8
NETAFIM-L-DETL-025M-TUBING
  6
Continuous
100
AcDbCircle
 10
3.529714989906189
 20
1.19317520329708
 30
0.0
 40
0.0138904450245202
100
AcDbArc
 50
330.9804483706622
 51
0.0000000000069209
  0
ARC
  5
D8D
330
1F
100
AcDbEntity
  8
NETAFIM-L-DETL-025M-TUBING
  6
Continuous
100
AcDbCircle
 10
3.842090857609417
 20
5.954266511193397
 30
0.0
 40
0.0138904450245243
100
AcDbArc
 50
0.000000000005496
 51
29.01955162934799
  0
ARC
  5
D8E
330
1F
100
AcDbEntity
  8
NETAFIM-L-DETL-025M-TUBING
  6
Continuous
100
AcDbCircle
 10
3.83693159821249
 20
5.951404385084972
 30
0.0
 40
0.0197904215825563
100
AcDbArc
 50
29.01955162935199
 51
53.25277257202152
  0
ARC
  5
D8F
330
1F
100
AcDbEntity
  8
NETAFIM-L-DETL-025M-TUBING
  6
Continuous
100
AcDbCircle
 10
3.833565455964308
 20
5.946896118889817
 30
0.0
 40
0.0254167327827436
100
AcDbArc
 50
53.25277257201592
 51
72.81437923351815
  0
ARC
  5
D90
330
1F
100
AcDbEntity
  8
NETAFIM-L-DETL-025M-TUBING
  6
Continuous
100
AcDbCircle
 10
3.831366954402756
 20
5.939787592982133
 30
0.0
 40
0.0328574686130474
100
AcDbArc
 50
72.81437923349685
 51
90.0
  0
ARC
  5
D91
330
1F
100
AcDbEntity
  8
NETAFIM-L-DETL-025M-TUBING
  6
Continuous
100
AcDbCircle
 10
3.831366954402756
 20
5.939787592982119
 30
0.0
 40
0.0328574686130621
100
AcDbArc
 50
90.0
 51
107.1856207665
  0
ARC
  5
D92
330
1F
100
AcDbEntity
  8
NETAFIM-L-DETL-025M-TUBING
  6
Continuous
100
AcDbCircle
 10
3.829168452841205
 20
5.946896118889807
 30
0.0
 40
0.0254167327827547
100
AcDbArc
 50
107.1856207664927
 51
126.7472274279835
  0
ARC
  5
D93
330
1F
100
AcDbEntity
  8
NETAFIM-L-DETL-025M-TUBING
  6
Continuous
100
AcDbCircle
 10
3.825802310593015
 20
5.95140438508498
 30
0.0
 40
0.0197904215825456
100
AcDbArc
 50
126.7472274279823
 51
150.9804483706655
  0
ARC
  5
D94
330
1F
100
AcDbEntity
  8
NETAFIM-L-DETL-025M-TUBING
  6
Continuous
100
AcDbCircle
 10
3.820643051196086
 20
5.954266511193393
 30
0.0
 40
0.01389044502452
100
AcDbArc
 50
150.9804483706413
 51
179.999999999989
  0
ARC
  5
D95
330
1F
100
AcDbEntity
  8
NETAFIM-L-DETL-025M-TUBING
  6
Continuous
100
AcDbCircle
 10
3.820643051196089
 20
5.954266511193399
 30
0.0
 40
0.013890445024523
100
AcDbArc
 50
180.000000000011
 51
209.0195516293581
  0
ARC
  5
D96
330
1F
100
AcDbEntity
  8
NETAFIM-L-DETL-025M-TUBING
  6
Continuous
100
AcDbCircle
 10
3.825802310593019
 20
5.957128637301821
 30
0.0
 40
0.0197904215825502
100
AcDbArc
 50
209.019551629344
 51
233.2527725720185
  0
ARC
  5
D97
330
1F
100
AcDbEntity
  8
NETAFIM-L-DETL-025M-TUBING
  6
Continuous
100
AcDbCircle
 10
3.829168452841201
 20
5.961636903496984
 30
0.0
 40
0.0254167327827465
100
AcDbArc
 50
233.2527725720169
 51
252.8143792335173
  0
ARC
  5
D98
330
1F
100
AcDbEntity
  8
NETAFIM-L-DETL-025M-TUBING
  6
Continuous
100
AcDbCircle
 10
3.831366954402753
 20
5.96874542940467
 30
0.0
 40
0.0328574686130524
100
AcDbArc
 50
252.8143792334994
 51
270.0000000000022
  0
ARC
  5
D99
330
1F
100
AcDbEntity
  8
NETAFIM-L-DETL-025M-TUBING
  6
Continuous
100
AcDbCircle
 10
3.831366954402756
 20
5.968745429404703
 30
0.0
 40
0.032857468613086
100
AcDbArc
 50
270.0
 51
287.1856207664848
  0
ARC
  5
D9A
330
1F
100
AcDbEntity
  8
NETAFIM-L-DETL-025M-TUBING
  6
Continuous
100
AcDbCircle
 10
3.83356545596429
 20
5.961636903497005
 30
0.0
 40
0.0254167327827748
100
AcDbArc
 50
287.185620766507
 51
306.7472274279836
  0
ARC
  5
D9B
330
1F
100
AcDbEntity
  8
NETAFIM-L-DETL-025M-TUBING
  6
Continuous
100
AcDbCircle
 10
3.836931598212494
 20
5.957128637301819
 30
0.0
 40
0.0197904215825478
100
AcDbArc
 50
306.7472274279776
 51
330.9804483706606
  0
ARC
  5
D9C
330
1F
100
AcDbEntity
  8
NETAFIM-L-DETL-025M-TUBING
  6
Continuous
100
AcDbCircle
 10
3.84209085760942
 20
5.954266511193399
 30
0.0
 40
0.0138904450245199
100
AcDbArc
 50
330.9804483706535
 51
0.0
  0
LINE
  5
D9D
330
1F
100
AcDbEntity
  8
NETAFIM-L-DETL-025M-TUBING
  6
Continuous
100
AcDbLine
 10
3.858149097715365
 20
1.198537707275011
 30
0.0
 11
3.857161735915202
 21
3.095678606155516
 31
0.0
  0
LINE
  5
D9E
330
1F
100
AcDbEntity
  8
NETAFIM-L-DETL-025M-TUBING
  6
Continuous
100
AcDbLine
 10
3.808902269320267
 20
1.198537707275011
 30
0.0
 11
3.8079149075201
 21
3.095678606155516
 31
0.0
  0
ARC
  5
D9F
330
1F
100
AcDbEntity
  8
NETAFIM-L-DETL-025M-TUBING
  6
Continuous
100
AcDbCircle
 10
3.844607118914275
 20
1.19317520329708
 30
0.0
 40
0.0138904450245256
100
AcDbArc
 50
0.0000000000040711
 51
29.01955162934402
  0
ARC
  5
DA0
330
1F
100
AcDbEntity
  8
NETAFIM-L-DETL-025M-TUBING
  6
Continuous
100
AcDbCircle
 10
3.839447859517346
 20
1.190313077188658
 30
0.0
 40
0.0197904215825547
100
AcDbArc
 50
29.0195516293436
 51
53.25277257201266
  0
ARC
  5
DA1
330
1F
100
AcDbEntity
  8
NETAFIM-L-DETL-025M-TUBING
  6
Continuous
100
AcDbCircle
 10
3.83608171726917
 20
1.185804810993495
 30
0.0
 40
0.0254167327827471
100
AcDbArc
 50
53.25277257202152
 51
72.81437923352412
  0
ARC
  5
DA2
330
1F
100
AcDbEntity
  8
NETAFIM-L-DETL-025M-TUBING
  6
Continuous
100
AcDbCircle
 10
3.833883215707615
 20
1.178696285085816
 30
0.0
 40
0.032857468613047
100
AcDbArc
 50
72.81437923349642
 51
90.0
  0
ARC
  5
DA3
330
1F
100
AcDbEntity
  8
NETAFIM-L-DETL-025M-TUBING
  6
Continuous
100
AcDbCircle
 10
3.833883215707615
 20
1.178696285085801
 30
0.0
 40
0.0328574686130621
100
AcDbArc
 50
90.0
 51
107.1856207665
  0
ARC
  5
DA4
330
1F
100
AcDbEntity
  8
NETAFIM-L-DETL-025M-TUBING
  6
Continuous
100
AcDbCircle
 10
3.831684714146067
 20
1.185804810993489
 30
0.0
 40
0.025416732782756
100
AcDbArc
 50
107.1856207664918
 51
126.7472274279817
  0
ARC
  5
DA5
330
1F
100
AcDbEntity
  8
NETAFIM-L-DETL-025M-TUBING
  6
Continuous
100
AcDbCircle
 10
3.828318571897874
 20
1.190313077188662
 30
0.0
 40
0.0197904215825478
100
AcDbArc
 50
126.7472274279776
 51
150.9804483706605
  0
ARC
  5
DA6
330
1F
100
AcDbEntity
  8
NETAFIM-L-DETL-025M-TUBING
  6
Continuous
100
AcDbCircle
 10
3.823159312500948
 20
1.193175203297084
 30
0.0
 40
0.0138904450245191
100
AcDbArc
 50
150.9804483706593
 51
180.0000000000068
  0
ARC
  5
DA7
330
1F
100
AcDbEntity
  8
NETAFIM-L-DETL-025M-TUBING
  6
Continuous
100
AcDbCircle
 10
3.823159312500951
 20
1.193175203297082
 30
0.0
 40
0.013890445024523
100
AcDbArc
 50
180.0
 51
209.0195516293456
  0
ARC
  5
DA8
330
1F
100
AcDbEntity
  8
NETAFIM-L-DETL-025M-TUBING
  6
Continuous
100
AcDbCircle
 10
3.828318571897877
 20
1.196037329405503
 30
0.0
 40
0.0197904215825512
100
AcDbArc
 50
209.0195516293415
 51
233.2527725720147
  0
ARC
  5
DA9
330
1F
100
AcDbEntity
  8
NETAFIM-L-DETL-025M-TUBING
  6
Continuous
100
AcDbCircle
 10
3.83168471414606
 20
1.200545595600668
 30
0.0
 40
0.0254167327827484
100
AcDbArc
 50
233.2527725720165
 51
252.8143792335152
  0
ARC
  5
DAA
330
1F
100
AcDbEntity
  8
NETAFIM-L-DETL-025M-TUBING
  6
Continuous
100
AcDbCircle
 10
3.833883215707615
 20
1.207654121508353
 30
0.0
 40
0.0328574686130528
100
AcDbArc
 50
252.8143792334973
 51
270.0
  0
ARC
  5
DAB
330
1F
100
AcDbEntity
  8
NETAFIM-L-DETL-025M-TUBING
  6
Continuous
100
AcDbCircle
 10
3.833883215707611
 20
1.207654121508385
 30
0.0
 40
0.0328574686130854
100
AcDbArc
 50
270.0000000000022
 51
287.1856207664874
  0
ARC
  5
DAC
330
1F
100
AcDbEntity
  8
NETAFIM-L-DETL-025M-TUBING
  6
Continuous
100
AcDbCircle
 10
3.836081717269149
 20
1.200545595600694
 30
0.0
 40
0.025416732782779
100
AcDbArc
 50
287.1856207665039
 51
306.7472274279802
  0
ARC
  5
DAD
330
1F
100
AcDbEntity
  8
NETAFIM-L-DETL-025M-TUBING
  6
Continuous
100
AcDbCircle
 10
3.839447859517353
 20
1.196037329405499
 30
0.0
 40
0.0197904215825464
100
AcDbArc
 50
306.7472274279853
 51
330.9804483706673
  0
ARC
  5
DAE
330
1F
100
AcDbEntity
  8
NETAFIM-L-DETL-025M-TUBING
  6
Continuous
100
AcDbCircle
 10
3.844607118914279
 20
1.193175203297083
 30
0.0
 40
0.0138904450245215
100
AcDbArc
 50
330.9804483706526
 51
359.9999999999959
  0
ARC
  5
DAF
330
1F
100
AcDbEntity
  8
NETAFIM-L-DETL-025M-TUBING
  6
Continuous
100
AcDbCircle
 10
4.156623520716813
 20
5.954266511193397
 30
0.0
 40
0.0138904450245243
100
AcDbArc
 50
0.000000000005496
 51
29.01955162934799
  0
ARC
  5
DB0
330
1F
100
AcDbEntity
  8
NETAFIM-L-DETL-025M-TUBING
  6
Continuous
100
AcDbCircle
 10
4.151464261319883
 20
5.951404385084975
 30
0.0
 40
0.0197904215825539
100
AcDbArc
 50
29.01955162934715
 51
53.25277257201697
  0
ARC
  5
DB1
330
1F
100
AcDbEntity
  8
NETAFIM-L-DETL-025M-TUBING
  6
Continuous
100
AcDbCircle
 10
4.148098119071708
 20
5.946896118889812
 30
0.0
 40
0.0254167327827468
100
AcDbArc
 50
53.2527725720213
 51
72.81437923352389
  0
ARC
  5
DB2
330
1F
100
AcDbEntity
  8
NETAFIM-L-DETL-025M-TUBING
  6
Continuous
100
AcDbCircle
 10
4.145899617510149
 20
5.939787592982133
 30
0.0
 40
0.0328574686130474
100
AcDbArc
 50
72.81437923349685
 51
90.0
  0
ARC
  5
DB3
330
1F
100
AcDbEntity
  8
NETAFIM-L-DETL-025M-TUBING
  6
Continuous
100
AcDbCircle
 10
4.145899617510149
 20
5.939787592982122
 30
0.0
 40
0.0328574686130581
100
AcDbArc
 50
90.0
 51
107.1856207665
  0
ARC
  5
DB4
330
1F
100
AcDbEntity
  8
NETAFIM-L-DETL-025M-TUBING
  6
Continuous
100
AcDbCircle
 10
4.143701115948601
 20
5.946896118889803
 30
0.0
 40
0.0254167327827581
100
AcDbArc
 50
107.1856207664871
 51
126.7472274279782
  0
ARC
  5
DB5
330
1F
100
AcDbEntity
  8
NETAFIM-L-DETL-025M-TUBING
  6
Continuous
100
AcDbCircle
 10
4.140334973700412
 20
5.95140438508498
 30
0.0
 40
0.0197904215825456
100
AcDbArc
 50
126.7472274279823
 51
150.9804483706655
  0
ARC
  5
DB6
330
1F
100
AcDbEntity
  8
NETAFIM-L-DETL-025M-TUBING
  6
Continuous
100
AcDbCircle
 10
4.135175714303482
 20
5.954266511193399
 30
0.0
 40
0.0138904450245187
100
AcDbArc
 50
150.9804483706509
 51
180.0
  0
ARC
  5
DB7
330
1F
100
AcDbEntity
  8
NETAFIM-L-DETL-025M-TUBING
  6
Continuous
100
AcDbCircle
 10
4.135175714303485
 20
5.954266511193399
 30
0.0
 40
0.0138904450245217
100
AcDbArc
 50
180.0
 51
209.0195516293484
  0
ARC
  5
DB8
330
1F
100
AcDbEntity
  8
NETAFIM-L-DETL-025M-TUBING
  6
Continuous
100
AcDbCircle
 10
4.140334973700415
 20
5.957128637301821
 30
0.0
 40
0.0197904215825502
100
AcDbArc
 50
209.019551629344
 51
233.2527725720185
  0
ARC
  5
DB9
330
1F
100
AcDbEntity
  8
NETAFIM-L-DETL-025M-TUBING
  6
Continuous
100
AcDbCircle
 10
4.143701115948598
 20
5.961636903496984
 30
0.0
 40
0.0254167327827465
100
AcDbArc
 50
233.2527725720169
 51
252.8143792335173
  0
ARC
  5
DBA
330
1F
100
AcDbEntity
  8
NETAFIM-L-DETL-025M-TUBING
  6
Continuous
100
AcDbCircle
 10
4.145899617510149
 20
5.96874542940467
 30
0.0
 40
0.0328574686130524
100
AcDbArc
 50
252.8143792334994
 51
270.0000000000022
  0
ARC
  5
DBB
330
1F
100
AcDbEntity
  8
NETAFIM-L-DETL-025M-TUBING
  6
Continuous
100
AcDbCircle
 10
4.145899617510149
 20
5.968745429404703
 30
0.0
 40
0.032857468613086
100
AcDbArc
 50
270.0
 51
287.1856207664848
  0
ARC
  5
DBC
330
1F
100
AcDbEntity
  8
NETAFIM-L-DETL-025M-TUBING
  6
Continuous
100
AcDbCircle
 10
4.148098119071686
 20
5.96163690349701
 30
0.0
 40
0.0254167327827782
100
AcDbArc
 50
287.1856207665015
 51
306.7472274279781
  0
ARC
  5
DBD
330
1F
100
AcDbEntity
  8
NETAFIM-L-DETL-025M-TUBING
  6
Continuous
100
AcDbCircle
 10
4.15146426131989
 20
5.957128637301815
 30
0.0
 40
0.0197904215825456
100
AcDbArc
 50
306.7472274279823
 51
330.9804483706656
  0
ARC
  5
DBE
330
1F
100
AcDbEntity
  8
NETAFIM-L-DETL-025M-TUBING
  6
Continuous
100
AcDbCircle
 10
4.156623520716816
 20
5.954266511193399
 30
0.0
 40
0.0138904450245199
100
AcDbArc
 50
330.9804483706535
 51
0.0
  0
LINE
  5
DBF
330
1F
100
AcDbEntity
  8
NETAFIM-L-DETL-025M-TUBING
  6
Continuous
100
AcDbLine
 10
4.172681760822761
 20
1.198537707275011
 30
0.0
 11
4.171694399022594
 21
3.095678606155516
 31
0.0
  0
LINE
  5
DC0
330
1F
100
AcDbEntity
  8
NETAFIM-L-DETL-025M-TUBING
  6
Continuous
100
AcDbLine
 10
4.12343493242766
 20
1.198537707275011
 30
0.0
 11
4.122447570627496
 21
3.095678606155516
 31
0.0
  0
ARC
  5
DC1
330
1F
100
AcDbEntity
  8
NETAFIM-L-DETL-025M-TUBING
  6
Continuous
100
AcDbCircle
 10
4.159139782021672
 20
1.193175203297084
 30
0.0
 40
0.0138904450245243
100
AcDbArc
 50
359.9999999999931
 51
29.01955162933436
  0
ARC
  5
DC2
330
1F
100
AcDbEntity
  8
NETAFIM-L-DETL-025M-TUBING
  6
Continuous
100
AcDbCircle
 10
4.153980522624745
 20
1.190313077188655
 30
0.0
 40
0.0197904215825562
100
AcDbArc
 50
29.01955162935112
 51
53.25277257202078
  0
ARC
  5
DC3
330
1F
100
AcDbEntity
  8
NETAFIM-L-DETL-025M-TUBING
  6
Continuous
100
AcDbCircle
 10
4.150614380376566
 20
1.185804810993495
 30
0.0
 40
0.0254167327827471
100
AcDbArc
 50
53.25277257202152
 51
72.81437923352412
  0
ARC
  5
DC4
330
1F
100
AcDbEntity
  8
NETAFIM-L-DETL-025M-TUBING
  6
Continuous
100
AcDbCircle
 10
4.148415878815011
 20
1.178696285085816
 30
0.0
 40
0.032857468613047
100
AcDbArc
 50
72.81437923349642
 51
90.0
  0
ARC
  5
DC5
330
1F
100
AcDbEntity
  8
NETAFIM-L-DETL-025M-TUBING
  6
Continuous
100
AcDbCircle
 10
4.148415878815011
 20
1.178696285085801
 30
0.0
 40
0.0328574686130621
100
AcDbArc
 50
90.0
 51
107.1856207665
  0
ARC
  5
DC6
330
1F
100
AcDbEntity
  8
NETAFIM-L-DETL-025M-TUBING
  6
Continuous
100
AcDbCircle
 10
4.14621737725346
 20
1.185804810993489
 30
0.0
 40
0.025416732782756
100
AcDbArc
 50
107.1856207664918
 51
126.7472274279817
  0
ARC
  5
DC7
330
1F
100
AcDbEntity
  8
NETAFIM-L-DETL-025M-TUBING
  6
Continuous
100
AcDbCircle
 10
4.14285123500527
 20
1.190313077188664
 30
0.0
 40
0.0197904215825462
100
AcDbArc
 50
126.7472274279858
 51
150.980448370668
  0
ARC
  5
DC8
330
1F
100
AcDbEntity
  8
NETAFIM-L-DETL-025M-TUBING
  6
Continuous
100
AcDbCircle
 10
4.137691975608344
 20
1.193175203297081
 30
0.0
 40
0.0138904450245202
100
AcDbArc
 50
150.980448370651
 51
179.9999999999972
  0
ARC
  5
DC9
330
1F
100
AcDbEntity
  8
NETAFIM-L-DETL-025M-TUBING
  6
Continuous
100
AcDbCircle
 10
4.137691975608348
 20
1.193175203297082
 30
0.0
 40
0.013890445024523
100
AcDbArc
 50
180.0
 51
209.0195516293456
  0
ARC
  5
DCA
330
1F
100
AcDbEntity
  8
NETAFIM-L-DETL-025M-TUBING
  6
Continuous
100
AcDbCircle
 10
4.142851235005274
 20
1.196037329405503
 30
0.0
 40
0.0197904215825512
100
AcDbArc
 50
209.0195516293415
 51
233.2527725720147
  0
ARC
  5
DCB
330
1F
100
AcDbEntity
  8
NETAFIM-L-DETL-025M-TUBING
  6
Continuous
100
AcDbCircle
 10
4.146217377253456
 20
1.200545595600671
 30
0.0
 40
0.0254167327827513
100
AcDbArc
 50
233.2527725720213
 51
252.8143792335205
  0
ARC
  5
DCC
330
1F
100
AcDbEntity
  8
NETAFIM-L-DETL-025M-TUBING
  6
Continuous
100
AcDbCircle
 10
4.148415878815011
 20
1.207654121508348
 30
0.0
 40
0.032857468613048
100
AcDbArc
 50
252.8143792334973
 51
270.0
  0
ARC
  5
DCD
330
1F
100
AcDbEntity
  8
NETAFIM-L-DETL-025M-TUBING
  6
Continuous
100
AcDbCircle
 10
4.148415878815011
 20
1.20765412150839
 30
0.0
 40
0.0328574686130897
100
AcDbArc
 50
270.0
 51
287.1856207664853
  0
ARC
  5
DCE
330
1F
100
AcDbEntity
  8
NETAFIM-L-DETL-025M-TUBING
  6
Continuous
100
AcDbCircle
 10
4.150614380376548
 20
1.20054559560069
 30
0.0
 40
0.0254167327827754
100
AcDbArc
 50
287.1856207665064
 51
306.7472274279827
  0
ARC
  5
DCF
330
1F
100
AcDbEntity
  8
NETAFIM-L-DETL-025M-TUBING
  6
Continuous
100
AcDbCircle
 10
4.153980522624749
 20
1.196037329405502
 30
0.0
 40
0.0197904215825483
100
AcDbArc
 50
306.7472274279765
 51
330.980448370659
  0
ARC
  5
DD0
330
1F
100
AcDbEntity
  8
NETAFIM-L-DETL-025M-TUBING
  6
Continuous
100
AcDbCircle
 10
4.159139782021675
 20
1.19317520329708
 30
0.0
 40
0.0138904450245202
100
AcDbArc
 50
330.9804483706622
 51
0.0000000000069209
  0
LINE
  5
DD1
330
1F
100
AcDbEntity
  8
NETAFIM-L-DETL-025M-TUBING
  6
Continuous
100
AcDbLine
 10
4.466724867590592
 20
1.198537707275011
 30
0.0
 11
4.465737505790425
 21
3.095678606155516
 31
0.0
  0
LINE
  5
DD2
330
1F
100
AcDbEntity
  8
NETAFIM-L-DETL-025M-TUBING
  6
Continuous
100
AcDbLine
 10
4.41747803919549
 20
1.198537707275011
 30
0.0
 11
4.416490677395326
 21
3.095678606155516
 31
0.0
  0
ARC
  5
DD3
330
1F
100
AcDbEntity
  8
NETAFIM-L-DETL-025M-TUBING
  6
Continuous
100
AcDbCircle
 10
4.453182888789498
 20
1.19317520329708
 30
0.0
 40
0.0138904450245256
100
AcDbArc
 50
0.0000000000040711
 51
29.01955162934402
  0
ARC
  5
DD4
330
1F
100
AcDbEntity
  8
NETAFIM-L-DETL-025M-TUBING
  6
Continuous
100
AcDbCircle
 10
4.448023629392572
 20
1.190313077188658
 30
0.0
 40
0.0197904215825547
100
AcDbArc
 50
29.0195516293436
 51
53.25277257201266
  0
ARC
  5
DD5
330
1F
100
AcDbEntity
  8
NETAFIM-L-DETL-025M-TUBING
  6
Continuous
100
AcDbCircle
 10
4.444657487144393
 20
1.185804810993495
 30
0.0
 40
0.0254167327827471
100
AcDbArc
 50
53.25277257202152
 51
72.81437923352412
  0
ARC
  5
DD6
330
1F
100
AcDbEntity
  8
NETAFIM-L-DETL-025M-TUBING
  6
Continuous
100
AcDbCircle
 10
4.442458985582838
 20
1.178696285085816
 30
0.0
 40
0.032857468613047
100
AcDbArc
 50
72.81437923349642
 51
90.0
  0
ARC
  5
DD7
330
1F
100
AcDbEntity
  8
NETAFIM-L-DETL-025M-TUBING
  6
Continuous
100
AcDbCircle
 10
4.442458985582838
 20
1.178696285085801
 30
0.0
 40
0.0328574686130621
100
AcDbArc
 50
90.0
 51
107.1856207665
  0
ARC
  5
DD8
330
1F
100
AcDbEntity
  8
NETAFIM-L-DETL-025M-TUBING
  6
Continuous
100
AcDbCircle
 10
4.44026048402129
 20
1.185804810993489
 30
0.0
 40
0.025416732782756
100
AcDbArc
 50
107.1856207664918
 51
126.7472274279817
  0
ARC
  5
DD9
330
1F
100
AcDbEntity
  8
NETAFIM-L-DETL-025M-TUBING
  6
Continuous
100
AcDbCircle
 10
4.436894341773101
 20
1.190313077188662
 30
0.0
 40
0.0197904215825478
100
AcDbArc
 50
126.7472274279776
 51
150.9804483706605
  0
ARC
  5
DDA
330
1F
100
AcDbEntity
  8
NETAFIM-L-DETL-025M-TUBING
  6
Continuous
100
AcDbCircle
 10
4.431735082376174
 20
1.193175203297084
 30
0.0
 40
0.0138904450245191
100
AcDbArc
 50
150.9804483706593
 51
180.0000000000068
  0
ARC
  5
DDB
330
1F
100
AcDbEntity
  8
NETAFIM-L-DETL-025M-TUBING
  6
Continuous
100
AcDbCircle
 10
4.431735082376174
 20
1.193175203297079
 30
0.0
 40
0.0138904450245217
100
AcDbArc
 50
179.9999999999903
 51
209.0195516293373
  0
ARC
  5
DDC
330
1F
100
AcDbEntity
  8
NETAFIM-L-DETL-025M-TUBING
  6
Continuous
100
AcDbCircle
 10
4.436894341773101
 20
1.196037329405506
 30
0.0
 40
0.0197904215825527
100
AcDbArc
 50
209.019551629349
 51
233.252772572023
  0
ARC
  5
DDD
330
1F
100
AcDbEntity
  8
NETAFIM-L-DETL-025M-TUBING
  6
Continuous
100
AcDbCircle
 10
4.440260484021287
 20
1.200545595600668
 30
0.0
 40
0.0254167327827484
100
AcDbArc
 50
233.2527725720165
 51
252.8143792335152
  0
ARC
  5
DDE
330
1F
100
AcDbEntity
  8
NETAFIM-L-DETL-025M-TUBING
  6
Continuous
100
AcDbCircle
 10
4.442458985582838
 20
1.207654121508353
 30
0.0
 40
0.0328574686130528
100
AcDbArc
 50
252.8143792334973
 51
270.0
  0
ARC
  5
DDF
330
1F
100
AcDbEntity
  8
NETAFIM-L-DETL-025M-TUBING
  6
Continuous
100
AcDbCircle
 10
4.442458985582838
 20
1.207654121508385
 30
0.0
 40
0.0328574686130854
100
AcDbArc
 50
270.0000000000022
 51
287.1856207664874
  0
ARC
  5
DE0
330
1F
100
AcDbEntity
  8
NETAFIM-L-DETL-025M-TUBING
  6
Continuous
100
AcDbCircle
 10
4.444657487144375
 20
1.200545595600694
 30
0.0
 40
0.025416732782779
100
AcDbArc
 50
287.1856207665039
 51
306.7472274279802
  0
ARC
  5
DE1
330
1F
100
AcDbEntity
  8
NETAFIM-L-DETL-025M-TUBING
  6
Continuous
100
AcDbCircle
 10
4.448023629392576
 20
1.196037329405499
 30
0.0
 40
0.0197904215825464
100
AcDbArc
 50
306.7472274279853
 51
330.9804483706673
  0
ARC
  5
DE2
330
1F
100
AcDbEntity
  8
NETAFIM-L-DETL-025M-TUBING
  6
Continuous
100
AcDbCircle
 10
4.453182888789502
 20
1.193175203297083
 30
0.0
 40
0.0138904450245215
100
AcDbArc
 50
330.9804483706526
 51
359.9999999999959
  0
ARC
  5
DE3
330
1F
100
AcDbEntity
  8
NETAFIM-L-DETL-025M-TUBING
  6
Continuous
100
AcDbCircle
 10
4.75765050667746
 20
5.954266511193401
 30
0.0
 40
0.0138904450245243
100
AcDbArc
 50
359.9999999999945
 51
29.01955162933563
  0
ARC
  5
DE4
330
1F
100
AcDbEntity
  8
NETAFIM-L-DETL-025M-TUBING
  6
Continuous
100
AcDbCircle
 10
4.752491247280534
 20
5.951404385084972
 30
0.0
 40
0.0197904215825563
100
AcDbArc
 50
29.01955162935199
 51
53.25277257202152
  0
ARC
  5
DE5
330
1F
100
AcDbEntity
  8
NETAFIM-L-DETL-025M-TUBING
  6
Continuous
100
AcDbCircle
 10
4.749125105032355
 20
5.946896118889812
 30
0.0
 40
0.0254167327827468
100
AcDbArc
 50
53.2527725720213
 51
72.81437923352389
  0
ARC
  5
DE6
330
1F
100
AcDbEntity
  8
NETAFIM-L-DETL-025M-TUBING
  6
Continuous
100
AcDbCircle
 10
4.7469266034708
 20
5.939787592982133
 30
0.0
 40
0.0328574686130474
100
AcDbArc
 50
72.81437923349685
 51
90.0
  0
ARC
  5
DE7
330
1F
100
AcDbEntity
  8
NETAFIM-L-DETL-025M-TUBING
  6
Continuous
100
AcDbCircle
 10
4.7469266034708
 20
5.939787592982119
 30
0.0
 40
0.0328574686130621
100
AcDbArc
 50
90.0
 51
107.1856207665
  0
ARC
  5
DE8
330
1F
100
AcDbEntity
  8
NETAFIM-L-DETL-025M-TUBING
  6
Continuous
100
AcDbCircle
 10
4.744728101909249
 20
5.946896118889807
 30
0.0
 40
0.0254167327827547
100
AcDbArc
 50
107.1856207664927
 51
126.7472274279835
  0
ARC
  5
DE9
330
1F
100
AcDbEntity
  8
NETAFIM-L-DETL-025M-TUBING
  6
Continuous
100
AcDbCircle
 10
4.741361959661059
 20
5.95140438508498
 30
0.0
 40
0.0197904215825464
100
AcDbArc
 50
126.7472274279853
 51
150.9804483706673
  0
ARC
  5
DEA
330
1F
100
AcDbEntity
  8
NETAFIM-L-DETL-025M-TUBING
  6
Continuous
100
AcDbCircle
 10
4.736202700264133
 20
5.954266511193399
 30
0.0
 40
0.0138904450245199
100
AcDbArc
 50
150.9804483706535
 51
180.0
  0
ARC
  5
DEB
330
1F
100
AcDbEntity
  8
NETAFIM-L-DETL-025M-TUBING
  6
Continuous
100
AcDbCircle
 10
4.736202700264136
 20
5.954266511193399
 30
0.0
 40
0.013890445024523
100
AcDbArc
 50
180.0
 51
209.0195516293456
  0
ARC
  5
DEC
330
1F
100
AcDbEntity
  8
NETAFIM-L-DETL-025M-TUBING
  6
Continuous
100
AcDbCircle
 10
4.741361959661062
 20
5.957128637301821
 30
0.0
 40
0.0197904215825514
100
AcDbArc
 50
209.0195516293424
 51
233.2527725720154
  0
ARC
  5
DED
330
1F
100
AcDbEntity
  8
NETAFIM-L-DETL-025M-TUBING
  6
Continuous
100
AcDbCircle
 10
4.744728101909245
 20
5.961636903496987
 30
0.0
 40
0.0254167327827505
100
AcDbArc
 50
233.2527725720201
 51
252.8143792335199
  0
ARC
  5
DEE
330
1F
100
AcDbEntity
  8
NETAFIM-L-DETL-025M-TUBING
  6
Continuous
100
AcDbCircle
 10
4.7469266034708
 20
5.968745429404666
 30
0.0
 40
0.0328574686130486
100
AcDbArc
 50
252.8143792334975
 51
270.0
  0
ARC
  5
DEF
330
1F
100
AcDbEntity
  8
NETAFIM-L-DETL-025M-TUBING
  6
Continuous
100
AcDbCircle
 10
4.7469266034708
 20
5.968745429404707
 30
0.0
 40
0.03285746861309
100
AcDbArc
 50
270.0
 51
287.185620766485
  0
ARC
  5
DF0
330
1F
100
AcDbEntity
  8
NETAFIM-L-DETL-025M-TUBING
  6
Continuous
100
AcDbCircle
 10
4.749125105032337
 20
5.961636903497005
 30
0.0
 40
0.0254167327827748
100
AcDbArc
 50
287.185620766507
 51
306.7472274279836
  0
ARC
  5
DF1
330
1F
100
AcDbEntity
  8
NETAFIM-L-DETL-025M-TUBING
  6
Continuous
100
AcDbCircle
 10
4.752491247280538
 20
5.957128637301819
 30
0.0
 40
0.0197904215825478
100
AcDbArc
 50
306.7472274279776
 51
330.9804483706606
  0
ARC
  5
DF2
330
1F
100
AcDbEntity
  8
NETAFIM-L-DETL-025M-TUBING
  6
Continuous
100
AcDbCircle
 10
4.757650506677464
 20
5.954266511193395
 30
0.0
 40
0.0138904450245197
100
AcDbArc
 50
330.9804483706659
 51
0.000000000010992
  0
LINE
  5
DF3
330
1F
100
AcDbEntity
  8
NETAFIM-L-DETL-025M-TUBING
  6
Continuous
100
AcDbLine
 10
4.773708746783409
 20
1.198537707275011
 30
0.0
 11
4.771233746783408
 21
5.95406270727501
 31
0.0
  0
LINE
  5
DF4
330
1F
100
AcDbEntity
  8
NETAFIM-L-DETL-025M-TUBING
  6
Continuous
100
AcDbLine
 10
4.724461918388307
 20
1.198537707275011
 30
0.0
 11
4.723474556588143
 21
3.095678606155516
 31
0.0
  0
ARC
  5
DF5
330
1F
100
AcDbEntity
  8
NETAFIM-L-DETL-025M-TUBING
  6
Continuous
100
AcDbCircle
 10
4.760166767982319
 20
1.19317520329708
 30
0.0
 40
0.0138904450245243
100
AcDbArc
 50
0.0000000000040711
 51
29.01955162934671
  0
ARC
  5
DF6
330
1F
100
AcDbEntity
  8
NETAFIM-L-DETL-025M-TUBING
  6
Continuous
100
AcDbCircle
 10
4.755007508585393
 20
1.190313077188658
 30
0.0
 40
0.0197904215825535
100
AcDbArc
 50
29.01955162934548
 51
53.2527725720157
  0
ARC
  5
DF7
330
1F
100
AcDbEntity
  8
NETAFIM-L-DETL-025M-TUBING
  6
Continuous
100
AcDbCircle
 10
4.751641366337214
 20
1.185804810993499
 30
0.0
 40
0.0254167327827431
100
AcDbArc
 50
53.25277257201875
 51
72.81437923352136
  0
ARC
  5
DF8
330
1F
100
AcDbEntity
  8
NETAFIM-L-DETL-025M-TUBING
  6
Continuous
100
AcDbCircle
 10
4.749442864775659
 20
1.178696285085812
 30
0.0
 40
0.0328574686130512
100
AcDbArc
 50
72.81437923349876
 51
90.00000000000222
  0
ARC
  5
DF9
330
1F
100
AcDbEntity
  8
NETAFIM-L-DETL-025M-TUBING
  6
Continuous
100
AcDbCircle
 10
4.749442864775655
 20
1.178696285085806
 30
0.0
 40
0.0328574686130577
100
AcDbArc
 50
90.0
 51
107.1856207665
  0
ARC
  5
DFA
330
1F
100
AcDbEntity
  8
NETAFIM-L-DETL-025M-TUBING
  6
Continuous
100
AcDbCircle
 10
4.747244363214111
 20
1.185804810993489
 30
0.0
 40
0.025416732782756
100
AcDbArc
 50
107.1856207664918
 51
126.7472274279817
  0
ARC
  5
DFB
330
1F
100
AcDbEntity
  8
NETAFIM-L-DETL-025M-TUBING
  6
Continuous
100
AcDbCircle
 10
4.743878220965921
 20
1.190313077188662
 30
0.0
 40
0.0197904215825478
100
AcDbArc
 50
126.7472274279776
 51
150.9804483706605
  0
ARC
  5
DFC
330
1F
100
AcDbEntity
  8
NETAFIM-L-DETL-025M-TUBING
  6
Continuous
100
AcDbCircle
 10
4.738718961568991
 20
1.193175203297081
 30
0.0
 40
0.013890445024519
100
AcDbArc
 50
150.9804483706485
 51
179.9999999999972
  0
ARC
  5
DFD
330
1F
100
AcDbEntity
  8
NETAFIM-L-DETL-025M-TUBING
  6
Continuous
100
AcDbCircle
 10
4.738718961568995
 20
1.193175203297082
 30
0.0
 40
0.0138904450245217
100
AcDbArc
 50
180.0
 51
209.0195516293484
  0
ARC
  5
DFE
330
1F
100
AcDbEntity
  8
NETAFIM-L-DETL-025M-TUBING
  6
Continuous
100
AcDbCircle
 10
4.743878220965921
 20
1.196037329405506
 30
0.0
 40
0.0197904215825527
100
AcDbArc
 50
209.019551629349
 51
233.252772572023
  0
ARC
  5
DFF
330
1F
100
AcDbEntity
  8
NETAFIM-L-DETL-025M-TUBING
  6
Continuous
100
AcDbCircle
 10
4.747244363214104
 20
1.200545595600663
 30
0.0
 40
0.0254167327827444
100
AcDbArc
 50
233.2527725720134
 51
252.8143792335126
  0
ARC
  5
E00
330
1F
100
AcDbEntity
  8
NETAFIM-L-DETL-025M-TUBING
  6
Continuous
100
AcDbCircle
 10
4.749442864775655
 20
1.207654121508353
 30
0.0
 40
0.0328574686130524
100
AcDbArc
 50
252.8143792334994
 51
270.0000000000022
  0
ARC
  5
E01
330
1F
100
AcDbEntity
  8
NETAFIM-L-DETL-025M-TUBING
  6
Continuous
100
AcDbCircle
 10
4.749442864775655
 20
1.207654121508385
 30
0.0
 40
0.0328574686130854
100
AcDbArc
 50
270.0
 51
287.1856207664853
  0
ARC
  5
E02
330
1F
100
AcDbEntity
  8
NETAFIM-L-DETL-025M-TUBING
  6
Continuous
100
AcDbCircle
 10
4.751641366337192
 20
1.200545595600694
 30
0.0
 40
0.0254167327827786
100
AcDbArc
 50
287.1856207665013
 51
306.7472274279776
  0
ARC
  5
E03
330
1F
100
AcDbEntity
  8
NETAFIM-L-DETL-025M-TUBING
  6
Continuous
100
AcDbCircle
 10
4.755007508585396
 20
1.196037329405499
 30
0.0
 40
0.0197904215825456
100
AcDbArc
 50
306.7472274279823
 51
330.9804483706656
  0
ARC
  5
E04
330
1F
100
AcDbEntity
  8
NETAFIM-L-DETL-025M-TUBING
  6
Continuous
100
AcDbCircle
 10
4.760166767982322
 20
1.193175203297083
 30
0.0
 40
0.0138904450245203
100
AcDbArc
 50
330.9804483706499
 51
359.9999999999959
  0
LINE
  5
E05
330
1F
100
AcDbEntity
  8
NETAFIM-L-DETL-025M-TUBING
  6
Continuous
100
AcDbLine
 10
3.248890596673632
 20
3.201040417579505
 30
0.0
 11
3.247457793740835
 21
5.95406270727501
 31
0.0
  0
LINE
  5
E06
330
1F
100
AcDbEntity
  8
NETAFIM-L-DETL-025M-TUBING
  6
Continuous
100
AcDbLine
 10
2.63315370176922
 20
3.146869733321522
 30
0.0
 11
2.631692705851726
 21
5.95406270727501
 31
0.0
  0
LINE
  5
E07
330
1F
100
AcDbEntity
  8
NETAFIM-L-DETL-025M-TUBING
  6
Continuous
100
AcDbLine
 10
2.890171820765548
 20
3.146869733321522
 30
0.0
 11
2.888710824848057
 21
5.95406270727501
 31
0.0
  0
LINE
  5
E08
330
1F
100
AcDbEntity
  8
NETAFIM-L-DETL-025M-TUBING
  6
Continuous
100
AcDbLine
 10
2.93941864916065
 20
3.146869733321522
 30
0.0
 11
2.937957653243156
 21
5.95406270727501
 31
0.0
  0
LINE
  5
E09
330
1F
100
AcDbEntity
  8
NETAFIM-L-DETL-025M-TUBING
  6
Continuous
100
AcDbLine
 10
3.199671961263227
 20
3.146869733321522
 30
0.0
 11
3.198210965345733
 21
5.95406270727501
 31
0.0
  0
LINE
  5
E0A
330
1F
100
AcDbEntity
  8
NETAFIM-L-DETL-025M-TUBING
  6
Continuous
100
AcDbLine
 10
3.542242964624765
 20
3.146869733321523
 30
0.0
 11
3.540781968707275
 21
5.95406270727501
 31
0.0
  0
LINE
  5
E0B
330
1F
100
AcDbEntity
  8
NETAFIM-L-DETL-025M-TUBING
  6
Continuous
100
AcDbLine
 10
3.857135093632859
 20
3.146869733321523
 30
0.0
 11
3.855674097715365
 21
5.95406270727501
 31
0.0
  0
LINE
  5
E0C
330
1F
100
AcDbEntity
  8
NETAFIM-L-DETL-025M-TUBING
  6
Continuous
100
AcDbLine
 10
3.807888265237757
 20
3.146869733321523
 30
0.0
 11
3.806427269320263
 21
5.95406270727501
 31
0.0
  0
LINE
  5
E0D
330
1F
100
AcDbEntity
  8
NETAFIM-L-DETL-025M-TUBING
  6
Continuous
100
AcDbLine
 10
4.122420928345153
 20
3.146869733321523
 30
0.0
 11
4.120959932427663
 21
5.95406270727501
 31
0.0
  0
LINE
  5
E0E
330
1F
100
AcDbEntity
  8
NETAFIM-L-DETL-025M-TUBING
  6
Continuous
100
AcDbLine
 10
4.171667756740255
 20
3.146869733321523
 30
0.0
 11
4.170206760822761
 21
5.95406270727501
 31
0.0
  0
LINE
  5
E0F
330
1F
100
AcDbEntity
  8
NETAFIM-L-DETL-025M-TUBING
  6
Continuous
100
AcDbLine
 10
4.465710863508082
 20
3.146869733321523
 30
0.0
 11
4.464249867590591
 21
5.95406270727501
 31
0.0
  0
LINE
  5
E10
330
1F
100
AcDbEntity
  8
NETAFIM-L-DETL-025M-TUBING
  6
Continuous
100
AcDbLine
 10
4.416464035112984
 20
3.146869733321523
 30
0.0
 11
4.415003039195489
 21
5.95406270727501
 31
0.0
  0
LINE
  5
E11
330
1F
100
AcDbEntity
  8
NETAFIM-L-DETL-025M-TUBING
  6
Continuous
100
AcDbLine
 10
4.723447914305801
 20
3.146869733321523
 30
0.0
 11
4.721986918388306
 21
5.95406270727501
 31
0.0
  0
LINE
  5
E12
330
1F
100
AcDbEntity
  8
NETAFIM-L-DETL-025M-TUBING
  6
Continuous
100
AcDbLine
 10
2.63315370176922
 20
3.146869733321522
 30
0.0
 11
2.633180344051563
 21
3.095678606155515
 31
0.0
  0
LINE
  5
E13
330
1F
100
AcDbEntity
  8
NETAFIM-L-DETL-025M-TUBING
  6
Continuous
100
AcDbLine
 10
2.890171820765548
 20
3.146869733321522
 30
0.0
 11
2.890198463047891
 21
3.095678606155515
 31
0.0
  0
LINE
  5
E14
330
1F
100
AcDbEntity
  8
NETAFIM-L-DETL-025M-TUBING
  6
Continuous
100
AcDbLine
 10
2.93941864916065
 20
3.146869733321522
 30
0.0
 11
2.939445291442993
 21
3.095678606155515
 31
0.0
  0
LINE
  5
E15
330
1F
100
AcDbEntity
  8
NETAFIM-L-DETL-025M-TUBING
  6
Continuous
100
AcDbLine
 10
3.199671961263227
 20
3.146869733321522
 30
0.0
 11
3.19969860354557
 21
3.095678606155516
 31
0.0
  0
LINE
  5
E16
330
1F
100
AcDbEntity
  8
NETAFIM-L-DETL-025M-TUBING
  6
Continuous
100
AcDbLine
 10
3.248890596673632
 20
3.201040417579505
 30
0.0
 11
3.24897363052765
 21
3.041497157531685
 31
0.0
  0
LINE
  5
E17
330
1F
100
AcDbEntity
  8
NETAFIM-L-DETL-025M-TUBING
  6
Continuous
100
AcDbLine
 10
3.542242964624765
 20
3.146869733321523
 30
0.0
 11
3.542269606907108
 21
3.095678606155516
 31
0.0
  0
LINE
  5
E18
330
1F
100
AcDbEntity
  8
NETAFIM-L-DETL-025M-TUBING
  6
Continuous
100
AcDbLine
 10
3.807888265237757
 20
3.146869733321523
 30
0.0
 11
3.8079149075201
 21
3.095678606155516
 31
0.0
  0
LINE
  5
E19
330
1F
100
AcDbEntity
  8
NETAFIM-L-DETL-025M-TUBING
  6
Continuous
100
AcDbLine
 10
3.857135093632859
 20
3.146869733321523
 30
0.0
 11
3.857161735915202
 21
3.095678606155516
 31
0.0
  0
LINE
  5
E1A
330
1F
100
AcDbEntity
  8
NETAFIM-L-DETL-025M-TUBING
  6
Continuous
100
AcDbLine
 10
4.122420928345153
 20
3.146869733321523
 30
0.0
 11
4.122447570627496
 21
3.095678606155516
 31
0.0
  0
LINE
  5
E1B
330
1F
100
AcDbEntity
  8
NETAFIM-L-DETL-025M-TUBING
  6
Continuous
100
AcDbLine
 10
4.171667756740255
 20
3.146869733321523
 30
0.0
 11
4.171694399022594
 21
3.095678606155516
 31
0.0
  0
LINE
  5
E1C
330
1F
100
AcDbEntity
  8
NETAFIM-L-DETL-025M-TUBING
  6
Continuous
100
AcDbLine
 10
4.416464035112984
 20
3.146869733321523
 30
0.0
 11
4.416490677395326
 21
3.095678606155516
 31
0.0
  0
LINE
  5
E1D
330
1F
100
AcDbEntity
  8
NETAFIM-L-DETL-025M-TUBING
  6
Continuous
100
AcDbLine
 10
4.465710863508082
 20
3.146869733321523
 30
0.0
 11
4.465737505790425
 21
3.095678606155516
 31
0.0
  0
LINE
  5
E1E
330
1F
100
AcDbEntity
  8
NETAFIM-L-DETL-025M-TUBING
  6
Continuous
100
AcDbLine
 10
4.723447914305801
 20
3.146869733321523
 30
0.0
 11
4.723474556588143
 21
3.095678606155516
 31
0.0
  0
LINE
  5
E1F
330
1F
100
AcDbEntity
  8
NETAFIM-L-DETL-035M
  6
Continuous
100
AcDbLine
 10
3.668230139863656
 20
6.830324169738519
 30
0.0
 11
3.674155139863653
 21
6.830324169738519
 31
0.0
  0
LINE
  5
E20
330
1F
100
AcDbEntity
  8
NETAFIM-L-DETL-035M
  6
Continuous
100
AcDbLine
 10
3.674155139863653
 20
6.830324169738519
 30
0.0
 11
3.689605139863655
 21
6.830324169738519
 31
0.0
  0
LINE
  5
E21
330
1F
100
AcDbEntity
  8
NETAFIM-L-DETL-035M
  6
Continuous
100
AcDbLine
 10
3.689605139863655
 20
6.830324169738519
 30
0.0
 11
3.711505139863653
 21
6.830324169738519
 31
0.0
  0
LINE
  5
E22
330
1F
100
AcDbEntity
  8
NETAFIM-L-DETL-035M
  6
Continuous
100
AcDbLine
 10
3.711505139863653
 20
6.830324169738519
 30
0.0
 11
3.736630139863652
 21
6.830324169738519
 31
0.0
  0
LINE
  5
E23
330
1F
100
AcDbEntity
  8
NETAFIM-L-DETL-035M
  6
Continuous
100
AcDbLine
 10
3.736630139863652
 20
6.830324169738519
 30
0.0
 11
3.761755139863655
 21
6.830324169738519
 31
0.0
  0
LINE
  5
E24
330
1F
100
AcDbEntity
  8
NETAFIM-L-DETL-035M
  6
Continuous
100
AcDbLine
 10
3.761755139863655
 20
6.830324169738519
 30
0.0
 11
3.783580139863655
 21
6.830324169738519
 31
0.0
  0
LINE
  5
E25
330
1F
100
AcDbEntity
  8
NETAFIM-L-DETL-035M
  6
Continuous
100
AcDbLine
 10
3.783580139863655
 20
6.830324169738519
 30
0.0
 11
3.799105139863652
 21
6.830324169738519
 31
0.0
  0
LINE
  5
E26
330
1F
100
AcDbEntity
  8
NETAFIM-L-DETL-035M
  6
Continuous
100
AcDbLine
 10
3.799105139863652
 20
6.830324169738519
 30
0.0
 11
3.804955139863654
 21
6.830324169738519
 31
0.0
  0
LINE
  5
E27
330
1F
100
AcDbEntity
  8
NETAFIM-L-DETL-035M
  6
Continuous
100
AcDbLine
 10
3.804955139863654
 20
6.830324169738519
 30
0.0
 11
3.824530139863654
 21
6.828374169738518
 31
0.0
  0
LINE
  5
E28
330
1F
100
AcDbEntity
  8
NETAFIM-L-DETL-035M
  6
Continuous
100
AcDbLine
 10
3.824530139863654
 20
6.828374169738518
 30
0.0
 11
3.842830139863654
 21
6.822599169738518
 31
0.0
  0
LINE
  5
E29
330
1F
100
AcDbEntity
  8
NETAFIM-L-DETL-035M
  6
Continuous
100
AcDbLine
 10
3.842830139863654
 20
6.822599169738518
 30
0.0
 11
3.859405139863653
 21
6.81359916973852
 31
0.0
  0
LINE
  5
E2A
330
1F
100
AcDbEntity
  8
NETAFIM-L-DETL-035M
  6
Continuous
100
AcDbLine
 10
3.859405139863653
 20
6.81359916973852
 30
0.0
 11
3.873880139863654
 21
6.801599169738519
 31
0.0
  0
LINE
  5
E2B
330
1F
100
AcDbEntity
  8
NETAFIM-L-DETL-035M
  6
Continuous
100
AcDbLine
 10
3.873880139863654
 20
6.801599169738519
 30
0.0
 11
3.885880139863655
 21
6.787124169738518
 31
0.0
  0
LINE
  5
E2C
330
1F
100
AcDbEntity
  8
NETAFIM-L-DETL-035M
  6
Continuous
100
AcDbLine
 10
3.885880139863655
 20
6.787124169738518
 30
0.0
 11
3.894880139863655
 21
6.770549169738519
 31
0.0
  0
LINE
  5
E2D
330
1F
100
AcDbEntity
  8
NETAFIM-L-DETL-035M
  6
Continuous
100
AcDbLine
 10
3.894880139863655
 20
6.770549169738519
 30
0.0
 11
3.900655139863655
 21
6.752249169738519
 31
0.0
  0
LINE
  5
E2E
330
1F
100
AcDbEntity
  8
NETAFIM-L-DETL-035M
  6
Continuous
100
AcDbLine
 10
3.900655139863655
 20
6.752249169738519
 30
0.0
 11
3.902605139863656
 21
6.732674169738519
 31
0.0
  0
LINE
  5
E2F
330
1F
100
AcDbEntity
  8
NETAFIM-L-DETL-035M
  6
Continuous
100
AcDbLine
 10
3.902605139863656
 20
6.732674169738519
 30
0.0
 11
3.902605139863656
 21
6.711224169738519
 31
0.0
  0
LINE
  5
E30
330
1F
100
AcDbEntity
  8
NETAFIM-L-DETL-035M
  6
Continuous
100
AcDbLine
 10
3.902605139863656
 20
6.711224169738519
 30
0.0
 11
3.902605139863656
 21
6.654599169738519
 31
0.0
  0
LINE
  5
E31
330
1F
100
AcDbEntity
  8
NETAFIM-L-DETL-035M
  6
Continuous
100
AcDbLine
 10
3.902605139863656
 20
6.654599169738519
 30
0.0
 11
3.902605139863656
 21
6.574499169738519
 31
0.0
  0
LINE
  5
E32
330
1F
100
AcDbEntity
  8
NETAFIM-L-DETL-035M
  6
Continuous
100
AcDbLine
 10
3.902605139863656
 20
6.574499169738519
 30
0.0
 11
3.902605139863656
 21
6.48269916973852
 31
0.0
  0
LINE
  5
E33
330
1F
100
AcDbEntity
  8
NETAFIM-L-DETL-035M
  6
Continuous
100
AcDbLine
 10
3.902605139863656
 20
6.48269916973852
 30
0.0
 11
3.902605139863656
 21
6.390899169738519
 31
0.0
  0
LINE
  5
E34
330
1F
100
AcDbEntity
  8
NETAFIM-L-DETL-035M
  6
Continuous
100
AcDbLine
 10
3.902605139863656
 20
6.390899169738519
 30
0.0
 11
3.902605139863656
 21
6.310799169738519
 31
0.0
  0
LINE
  5
E35
330
1F
100
AcDbEntity
  8
NETAFIM-L-DETL-035M
  6
Continuous
100
AcDbLine
 10
3.902605139863656
 20
6.310799169738519
 30
0.0
 11
3.902605139863656
 21
6.254174169738519
 31
0.0
  0
LINE
  5
E36
330
1F
100
AcDbEntity
  8
NETAFIM-L-DETL-035M
  6
Continuous
100
AcDbLine
 10
3.902605139863656
 20
6.254174169738519
 30
0.0
 11
3.902605139863656
 21
6.232724169738519
 31
0.0
  0
LINE
  5
E37
330
1F
100
AcDbEntity
  8
NETAFIM-L-DETL-035M
  6
Continuous
100
AcDbLine
 10
3.902605139863656
 20
6.232724169738519
 30
0.0
 11
3.900655139863655
 21
6.213074169738519
 31
0.0
  0
LINE
  5
E38
330
1F
100
AcDbEntity
  8
NETAFIM-L-DETL-035M
  6
Continuous
100
AcDbLine
 10
3.900655139863655
 20
6.213074169738519
 30
0.0
 11
3.894880139863655
 21
6.194849169738519
 31
0.0
  0
LINE
  5
E39
330
1F
100
AcDbEntity
  8
NETAFIM-L-DETL-035M
  6
Continuous
100
AcDbLine
 10
3.894880139863655
 20
6.194849169738519
 30
0.0
 11
3.885880139863655
 21
6.178274169738518
 31
0.0
  0
LINE
  5
E3A
330
1F
100
AcDbEntity
  8
NETAFIM-L-DETL-035M
  6
Continuous
100
AcDbLine
 10
3.885880139863655
 20
6.178274169738518
 30
0.0
 11
3.873880139863654
 21
6.163799169738519
 31
0.0
  0
LINE
  5
E3B
330
1F
100
AcDbEntity
  8
NETAFIM-L-DETL-035M
  6
Continuous
100
AcDbLine
 10
3.873880139863654
 20
6.163799169738519
 30
0.0
 11
3.859405139863653
 21
6.151799169738518
 31
0.0
  0
LINE
  5
E3C
330
1F
100
AcDbEntity
  8
NETAFIM-L-DETL-035M
  6
Continuous
100
AcDbLine
 10
3.859405139863653
 20
6.151799169738518
 30
0.0
 11
3.842830139863654
 21
6.142724169738519
 31
0.0
  0
LINE
  5
E3D
330
1F
100
AcDbEntity
  8
NETAFIM-L-DETL-035M
  6
Continuous
100
AcDbLine
 10
3.842830139863654
 20
6.142724169738519
 30
0.0
 11
3.824530139863654
 21
6.137024169738518
 31
0.0
  0
LINE
  5
E3E
330
1F
100
AcDbEntity
  8
NETAFIM-L-DETL-035M
  6
Continuous
100
AcDbLine
 10
3.824530139863654
 20
6.137024169738518
 30
0.0
 11
3.804955139863654
 21
6.13499916973852
 31
0.0
  0
LINE
  5
E3F
330
1F
100
AcDbEntity
  8
NETAFIM-L-DETL-035M
  6
Continuous
100
AcDbLine
 10
3.804955139863654
 20
6.13499916973852
 30
0.0
 11
3.793255139863653
 21
6.13499916973852
 31
0.0
  0
LINE
  5
E40
330
1F
100
AcDbEntity
  8
NETAFIM-L-DETL-035M
  6
Continuous
100
AcDbLine
 10
3.793255139863653
 20
6.13499916973852
 30
0.0
 11
3.762280139863651
 21
6.13499916973852
 31
0.0
  0
LINE
  5
E41
330
1F
100
AcDbEntity
  8
NETAFIM-L-DETL-035M
  6
Continuous
100
AcDbLine
 10
3.762280139863651
 20
6.13499916973852
 30
0.0
 11
3.718480139863654
 21
6.13499916973852
 31
0.0
  0
LINE
  5
E42
330
1F
100
AcDbEntity
  8
NETAFIM-L-DETL-035M
  6
Continuous
100
AcDbLine
 10
3.718480139863654
 20
6.13499916973852
 30
0.0
 11
3.668230139863656
 21
6.13499916973852
 31
0.0
  0
LINE
  5
E43
330
1F
100
AcDbEntity
  8
NETAFIM-L-DETL-035M
  6
Continuous
100
AcDbLine
 10
3.668230139863656
 20
6.13499916973852
 30
0.0
 11
3.618055139863653
 21
6.13499916973852
 31
0.0
  0
LINE
  5
E44
330
1F
100
AcDbEntity
  8
NETAFIM-L-DETL-035M
  6
Continuous
100
AcDbLine
 10
3.618055139863653
 20
6.13499916973852
 30
0.0
 11
3.574255139863655
 21
6.13499916973852
 31
0.0
  0
LINE
  5
E45
330
1F
100
AcDbEntity
  8
NETAFIM-L-DETL-035M
  6
Continuous
100
AcDbLine
 10
3.574255139863655
 20
6.13499916973852
 30
0.0
 11
3.543280139863654
 21
6.13499916973852
 31
0.0
  0
LINE
  5
E46
330
1F
100
AcDbEntity
  8
NETAFIM-L-DETL-035M
  6
Continuous
100
AcDbLine
 10
3.543280139863654
 20
6.13499916973852
 30
0.0
 11
3.531580139863653
 21
6.13499916973852
 31
0.0
  0
LINE
  5
E47
330
1F
100
AcDbEntity
  8
NETAFIM-L-DETL-035M
  6
Continuous
100
AcDbLine
 10
3.531580139863653
 20
6.13499916973852
 30
0.0
 11
3.511930139863654
 21
6.137024169738518
 31
0.0
  0
LINE
  5
E48
330
1F
100
AcDbEntity
  8
NETAFIM-L-DETL-035M
  6
Continuous
100
AcDbLine
 10
3.511930139863654
 20
6.137024169738518
 30
0.0
 11
3.493705139863653
 21
6.142724169738519
 31
0.0
  0
LINE
  5
E49
330
1F
100
AcDbEntity
  8
NETAFIM-L-DETL-035M
  6
Continuous
100
AcDbLine
 10
3.493705139863653
 20
6.142724169738519
 30
0.0
 11
3.477130139863653
 21
6.151799169738518
 31
0.0
  0
LINE
  5
E4A
330
1F
100
AcDbEntity
  8
NETAFIM-L-DETL-035M
  6
Continuous
100
AcDbLine
 10
3.477130139863653
 20
6.151799169738518
 30
0.0
 11
3.462655139863652
 21
6.163799169738519
 31
0.0
  0
LINE
  5
E4B
330
1F
100
AcDbEntity
  8
NETAFIM-L-DETL-035M
  6
Continuous
100
AcDbLine
 10
3.462655139863652
 20
6.163799169738519
 30
0.0
 11
3.450655139863652
 21
6.178274169738518
 31
0.0
  0
LINE
  5
E4C
330
1F
100
AcDbEntity
  8
NETAFIM-L-DETL-035M
  6
Continuous
100
AcDbLine
 10
3.450655139863652
 20
6.178274169738518
 30
0.0
 11
3.441580139863653
 21
6.194849169738519
 31
0.0
  0
LINE
  5
E4D
330
1F
100
AcDbEntity
  8
NETAFIM-L-DETL-035M
  6
Continuous
100
AcDbLine
 10
3.441580139863653
 20
6.194849169738519
 30
0.0
 11
3.435880139863652
 21
6.213074169738519
 31
0.0
  0
LINE
  5
E4E
330
1F
100
AcDbEntity
  8
NETAFIM-L-DETL-035M
  6
Continuous
100
AcDbLine
 10
3.435880139863652
 20
6.213074169738519
 30
0.0
 11
3.433855139863656
 21
6.232724169738519
 31
0.0
  0
LINE
  5
E4F
330
1F
100
AcDbEntity
  8
NETAFIM-L-DETL-035M
  6
Continuous
100
AcDbLine
 10
3.433855139863656
 20
6.232724169738519
 30
0.0
 11
3.433855139863656
 21
6.254174169738519
 31
0.0
  0
LINE
  5
E50
330
1F
100
AcDbEntity
  8
NETAFIM-L-DETL-035M
  6
Continuous
100
AcDbLine
 10
3.433855139863656
 20
6.254174169738519
 30
0.0
 11
3.433855139863656
 21
6.310799169738519
 31
0.0
  0
LINE
  5
E51
330
1F
100
AcDbEntity
  8
NETAFIM-L-DETL-035M
  6
Continuous
100
AcDbLine
 10
3.433855139863656
 20
6.310799169738519
 30
0.0
 11
3.433855139863656
 21
6.390899169738519
 31
0.0
  0
LINE
  5
E52
330
1F
100
AcDbEntity
  8
NETAFIM-L-DETL-035M
  6
Continuous
100
AcDbLine
 10
3.433855139863656
 20
6.390899169738519
 30
0.0
 11
3.433855139863656
 21
6.48269916973852
 31
0.0
  0
LINE
  5
E53
330
1F
100
AcDbEntity
  8
NETAFIM-L-DETL-035M
  6
Continuous
100
AcDbLine
 10
3.433855139863656
 20
6.48269916973852
 30
0.0
 11
3.433855139863656
 21
6.574499169738519
 31
0.0
  0
LINE
  5
E54
330
1F
100
AcDbEntity
  8
NETAFIM-L-DETL-035M
  6
Continuous
100
AcDbLine
 10
3.433855139863656
 20
6.574499169738519
 30
0.0
 11
3.433855139863656
 21
6.654599169738519
 31
0.0
  0
LINE
  5
E55
330
1F
100
AcDbEntity
  8
NETAFIM-L-DETL-035M
  6
Continuous
100
AcDbLine
 10
3.433855139863656
 20
6.654599169738519
 30
0.0
 11
3.433855139863656
 21
6.711224169738519
 31
0.0
  0
LINE
  5
E56
330
1F
100
AcDbEntity
  8
NETAFIM-L-DETL-035M
  6
Continuous
100
AcDbLine
 10
3.433855139863656
 20
6.711224169738519
 30
0.0
 11
3.433855139863656
 21
6.732674169738519
 31
0.0
  0
LINE
  5
E57
330
1F
100
AcDbEntity
  8
NETAFIM-L-DETL-035M
  6
Continuous
100
AcDbLine
 10
3.433855139863656
 20
6.732674169738519
 30
0.0
 11
3.435880139863652
 21
6.752249169738519
 31
0.0
  0
LINE
  5
E58
330
1F
100
AcDbEntity
  8
NETAFIM-L-DETL-035M
  6
Continuous
100
AcDbLine
 10
3.435880139863652
 20
6.752249169738519
 30
0.0
 11
3.441580139863653
 21
6.770549169738519
 31
0.0
  0
LINE
  5
E59
330
1F
100
AcDbEntity
  8
NETAFIM-L-DETL-035M
  6
Continuous
100
AcDbLine
 10
3.441580139863653
 20
6.770549169738519
 30
0.0
 11
3.450655139863652
 21
6.787124169738518
 31
0.0
  0
LINE
  5
E5A
330
1F
100
AcDbEntity
  8
NETAFIM-L-DETL-035M
  6
Continuous
100
AcDbLine
 10
3.450655139863652
 20
6.787124169738518
 30
0.0
 11
3.462655139863652
 21
6.801599169738519
 31
0.0
  0
LINE
  5
E5B
330
1F
100
AcDbEntity
  8
NETAFIM-L-DETL-035M
  6
Continuous
100
AcDbLine
 10
3.462655139863652
 20
6.801599169738519
 30
0.0
 11
3.477130139863653
 21
6.81359916973852
 31
0.0
  0
LINE
  5
E5C
330
1F
100
AcDbEntity
  8
NETAFIM-L-DETL-035M
  6
Continuous
100
AcDbLine
 10
3.477130139863653
 20
6.81359916973852
 30
0.0
 11
3.493705139863653
 21
6.822599169738518
 31
0.0
  0
LINE
  5
E5D
330
1F
100
AcDbEntity
  8
NETAFIM-L-DETL-035M
  6
Continuous
100
AcDbLine
 10
3.493705139863653
 20
6.822599169738518
 30
0.0
 11
3.511930139863654
 21
6.828374169738518
 31
0.0
  0
LINE
  5
E5E
330
1F
100
AcDbEntity
  8
NETAFIM-L-DETL-035M
  6
Continuous
100
AcDbLine
 10
3.511930139863654
 20
6.828374169738518
 30
0.0
 11
3.531580139863653
 21
6.830324169738519
 31
0.0
  0
LINE
  5
E5F
330
1F
100
AcDbEntity
  8
NETAFIM-L-DETL-035M
  6
Continuous
100
AcDbLine
 10
3.531580139863653
 20
6.830324169738519
 30
0.0
 11
3.537430139863655
 21
6.830324169738519
 31
0.0
  0
LINE
  5
E60
330
1F
100
AcDbEntity
  8
NETAFIM-L-DETL-035M
  6
Continuous
100
AcDbLine
 10
3.537430139863655
 20
6.830324169738519
 30
0.0
 11
3.552880139863653
 21
6.830324169738519
 31
0.0
  0
LINE
  5
E61
330
1F
100
AcDbEntity
  8
NETAFIM-L-DETL-035M
  6
Continuous
100
AcDbLine
 10
3.552880139863653
 20
6.830324169738519
 30
0.0
 11
3.574780139863651
 21
6.830324169738519
 31
0.0
  0
LINE
  5
E62
330
1F
100
AcDbEntity
  8
NETAFIM-L-DETL-035M
  6
Continuous
100
AcDbLine
 10
3.574780139863651
 20
6.830324169738519
 30
0.0
 11
3.599905139863654
 21
6.830324169738519
 31
0.0
  0
LINE
  5
E63
330
1F
100
AcDbEntity
  8
NETAFIM-L-DETL-035M
  6
Continuous
100
AcDbLine
 10
3.599905139863654
 20
6.830324169738519
 30
0.0
 11
3.625030139863653
 21
6.830324169738519
 31
0.0
  0
LINE
  5
E64
330
1F
100
AcDbEntity
  8
NETAFIM-L-DETL-035M
  6
Continuous
100
AcDbLine
 10
3.625030139863653
 20
6.830324169738519
 30
0.0
 11
3.646930139863652
 21
6.830324169738519
 31
0.0
  0
LINE
  5
E65
330
1F
100
AcDbEntity
  8
NETAFIM-L-DETL-035M
  6
Continuous
100
AcDbLine
 10
3.646930139863652
 20
6.830324169738519
 30
0.0
 11
3.662380139863653
 21
6.830324169738519
 31
0.0
  0
LINE
  5
E66
330
1F
100
AcDbEntity
  8
NETAFIM-L-DETL-035M
  6
Continuous
100
AcDbLine
 10
3.662380139863653
 20
6.830324169738519
 30
0.0
 11
3.668230139863656
 21
6.830324169738519
 31
0.0
  0
LINE
  5
E67
330
1F
100
AcDbEntity
  8
NETAFIM-L-DETL-035M
  6
Continuous
100
AcDbLine
 10
3.668230139863656
 20
6.79124916973852
 30
0.0
 11
3.672280139863651
 21
6.79124916973852
 31
0.0
  0
LINE
  5
E68
330
1F
100
AcDbEntity
  8
NETAFIM-L-DETL-035M
  6
Continuous
100
AcDbLine
 10
3.672280139863651
 20
6.79124916973852
 30
0.0
 11
3.682930139863653
 21
6.79124916973852
 31
0.0
  0
LINE
  5
E69
330
1F
100
AcDbEntity
  8
NETAFIM-L-DETL-035M
  6
Continuous
100
AcDbLine
 10
3.682930139863653
 20
6.79124916973852
 30
0.0
 11
3.697930139863654
 21
6.79124916973852
 31
0.0
  0
LINE
  5
E6A
330
1F
100
AcDbEntity
  8
NETAFIM-L-DETL-035M
  6
Continuous
100
AcDbLine
 10
3.697930139863654
 20
6.79124916973852
 30
0.0
 11
3.715105139863656
 21
6.79124916973852
 31
0.0
  0
LINE
  5
E6B
330
1F
100
AcDbEntity
  8
NETAFIM-L-DETL-035M
  6
Continuous
100
AcDbLine
 10
3.715105139863656
 20
6.79124916973852
 30
0.0
 11
3.732355139863653
 21
6.79124916973852
 31
0.0
  0
LINE
  5
E6C
330
1F
100
AcDbEntity
  8
NETAFIM-L-DETL-035M
  6
Continuous
100
AcDbLine
 10
3.732355139863653
 20
6.79124916973852
 30
0.0
 11
3.747355139863653
 21
6.79124916973852
 31
0.0
  0
LINE
  5
E6D
330
1F
100
AcDbEntity
  8
NETAFIM-L-DETL-035M
  6
Continuous
100
AcDbLine
 10
3.747355139863653
 20
6.79124916973852
 30
0.0
 11
3.758005139863652
 21
6.79124916973852
 31
0.0
  0
LINE
  5
E6E
330
1F
100
AcDbEntity
  8
NETAFIM-L-DETL-035M
  6
Continuous
100
AcDbLine
 10
3.758005139863652
 20
6.79124916973852
 30
0.0
 11
3.761980139863656
 21
6.79124916973852
 31
0.0
  0
LINE
  5
E6F
330
1F
100
AcDbEntity
  8
NETAFIM-L-DETL-035M
  6
Continuous
100
AcDbLine
 10
3.761980139863656
 20
6.79124916973852
 30
0.0
 11
3.781555139863652
 21
6.789299169738519
 31
0.0
  0
LINE
  5
E70
330
1F
100
AcDbEntity
  8
NETAFIM-L-DETL-035M
  6
Continuous
100
AcDbLine
 10
3.781555139863652
 20
6.789299169738519
 30
0.0
 11
3.799855139863655
 21
6.78352416973852
 31
0.0
  0
LINE
  5
E71
330
1F
100
AcDbEntity
  8
NETAFIM-L-DETL-035M
  6
Continuous
100
AcDbLine
 10
3.799855139863655
 20
6.78352416973852
 30
0.0
 11
3.816430139863651
 21
6.774524169738519
 31
0.0
  0
LINE
  5
E72
330
1F
100
AcDbEntity
  8
NETAFIM-L-DETL-035M
  6
Continuous
100
AcDbLine
 10
3.816430139863651
 20
6.774524169738519
 30
0.0
 11
3.830905139863652
 21
6.762524169738519
 31
0.0
  0
LINE
  5
E73
330
1F
100
AcDbEntity
  8
NETAFIM-L-DETL-035M
  6
Continuous
100
AcDbLine
 10
3.830905139863652
 20
6.762524169738519
 30
0.0
 11
3.842905139863653
 21
6.74804916973852
 31
0.0
  0
LINE
  5
E74
330
1F
100
AcDbEntity
  8
NETAFIM-L-DETL-035M
  6
Continuous
100
AcDbLine
 10
3.842905139863653
 20
6.74804916973852
 30
0.0
 11
3.851905139863653
 21
6.731474169738518
 31
0.0
  0
LINE
  5
E75
330
1F
100
AcDbEntity
  8
NETAFIM-L-DETL-035M
  6
Continuous
100
AcDbLine
 10
3.851905139863653
 20
6.731474169738518
 30
0.0
 11
3.857680139863653
 21
6.713174169738518
 31
0.0
  0
LINE
  5
E76
330
1F
100
AcDbEntity
  8
NETAFIM-L-DETL-035M
  6
Continuous
100
AcDbLine
 10
3.857680139863653
 20
6.713174169738518
 30
0.0
 11
3.859705139863653
 21
6.693599169738519
 31
0.0
  0
LINE
  5
E77
330
1F
100
AcDbEntity
  8
NETAFIM-L-DETL-035M
  6
Continuous
100
AcDbLine
 10
3.859705139863653
 20
6.693599169738519
 30
0.0
 11
3.859705139863653
 21
6.675524169738519
 31
0.0
  0
LINE
  5
E78
330
1F
100
AcDbEntity
  8
NETAFIM-L-DETL-035M
  6
Continuous
100
AcDbLine
 10
3.859705139863653
 20
6.675524169738519
 30
0.0
 11
3.859705139863653
 21
6.627674169738519
 31
0.0
  0
LINE
  5
E79
330
1F
100
AcDbEntity
  8
NETAFIM-L-DETL-035M
  6
Continuous
100
AcDbLine
 10
3.859705139863653
 20
6.627674169738519
 30
0.0
 11
3.859705139863653
 21
6.560174169738518
 31
0.0
  0
LINE
  5
E7A
330
1F
100
AcDbEntity
  8
NETAFIM-L-DETL-035M
  6
Continuous
100
AcDbLine
 10
3.859705139863653
 20
6.560174169738518
 30
0.0
 11
3.859705139863653
 21
6.48269916973852
 31
0.0
  0
LINE
  5
E7B
330
1F
100
AcDbEntity
  8
NETAFIM-L-DETL-035M
  6
Continuous
100
AcDbLine
 10
3.859705139863653
 20
6.48269916973852
 30
0.0
 11
3.859705139863653
 21
6.405224169738518
 31
0.0
  0
LINE
  5
E7C
330
1F
100
AcDbEntity
  8
NETAFIM-L-DETL-035M
  6
Continuous
100
AcDbLine
 10
3.859705139863653
 20
6.405224169738518
 30
0.0
 11
3.859705139863653
 21
6.337649169738519
 31
0.0
  0
LINE
  5
E7D
330
1F
100
AcDbEntity
  8
NETAFIM-L-DETL-035M
  6
Continuous
100
AcDbLine
 10
3.859705139863653
 20
6.337649169738519
 30
0.0
 11
3.859705139863653
 21
6.289874169738519
 31
0.0
  0
LINE
  5
E7E
330
1F
100
AcDbEntity
  8
NETAFIM-L-DETL-035M
  6
Continuous
100
AcDbLine
 10
3.859705139863653
 20
6.289874169738519
 30
0.0
 11
3.859705139863653
 21
6.271724169738519
 31
0.0
  0
LINE
  5
E7F
330
1F
100
AcDbEntity
  8
NETAFIM-L-DETL-035M
  6
Continuous
100
AcDbLine
 10
3.859705139863653
 20
6.271724169738519
 30
0.0
 11
3.857680139863653
 21
6.252149169738519
 31
0.0
  0
LINE
  5
E80
330
1F
100
AcDbEntity
  8
NETAFIM-L-DETL-035M
  6
Continuous
100
AcDbLine
 10
3.857680139863653
 20
6.252149169738519
 30
0.0
 11
3.851905139863653
 21
6.23392416973852
 31
0.0
  0
LINE
  5
E81
330
1F
100
AcDbEntity
  8
NETAFIM-L-DETL-035M
  6
Continuous
100
AcDbLine
 10
3.851905139863653
 20
6.23392416973852
 30
0.0
 11
3.842905139863653
 21
6.217274169738518
 31
0.0
  0
LINE
  5
E82
330
1F
100
AcDbEntity
  8
NETAFIM-L-DETL-035M
  6
Continuous
100
AcDbLine
 10
3.842905139863653
 20
6.217274169738518
 30
0.0
 11
3.830905139863652
 21
6.202799169738518
 31
0.0
  0
LINE
  5
E83
330
1F
100
AcDbEntity
  8
NETAFIM-L-DETL-035M
  6
Continuous
100
AcDbLine
 10
3.830905139863652
 20
6.202799169738518
 30
0.0
 11
3.816430139863651
 21
6.190874169738519
 31
0.0
  0
LINE
  5
E84
330
1F
100
AcDbEntity
  8
NETAFIM-L-DETL-035M
  6
Continuous
100
AcDbLine
 10
3.816430139863651
 20
6.190874169738519
 30
0.0
 11
3.799855139863655
 21
6.181799169738518
 31
0.0
  0
LINE
  5
E85
330
1F
100
AcDbEntity
  8
NETAFIM-L-DETL-035M
  6
Continuous
100
AcDbLine
 10
3.799855139863655
 20
6.181799169738518
 30
0.0
 11
3.781555139863652
 21
6.176099169738519
 31
0.0
  0
LINE
  5
E86
330
1F
100
AcDbEntity
  8
NETAFIM-L-DETL-035M
  6
Continuous
100
AcDbLine
 10
3.781555139863652
 20
6.176099169738519
 30
0.0
 11
3.761980139863656
 21
6.174074169738519
 31
0.0
  0
LINE
  5
E87
330
1F
100
AcDbEntity
  8
NETAFIM-L-DETL-035M
  6
Continuous
100
AcDbLine
 10
3.761980139863656
 20
6.174074169738519
 30
0.0
 11
3.753955139863652
 21
6.174074169738519
 31
0.0
  0
LINE
  5
E88
330
1F
100
AcDbEntity
  8
NETAFIM-L-DETL-035M
  6
Continuous
100
AcDbLine
 10
3.753955139863652
 20
6.174074169738519
 30
0.0
 11
3.732730139863651
 21
6.174074169738519
 31
0.0
  0
LINE
  5
E89
330
1F
100
AcDbEntity
  8
NETAFIM-L-DETL-035M
  6
Continuous
100
AcDbLine
 10
3.732730139863651
 20
6.174074169738519
 30
0.0
 11
3.702655139863654
 21
6.174074169738519
 31
0.0
  0
LINE
  5
E8A
330
1F
100
AcDbEntity
  8
NETAFIM-L-DETL-035M
  6
Continuous
100
AcDbLine
 10
3.702655139863654
 20
6.174074169738519
 30
0.0
 11
3.668230139863656
 21
6.174074169738519
 31
0.0
  0
LINE
  5
E8B
330
1F
100
AcDbEntity
  8
NETAFIM-L-DETL-035M
  6
Continuous
100
AcDbLine
 10
3.668230139863656
 20
6.174074169738519
 30
0.0
 11
3.633805139863653
 21
6.174074169738519
 31
0.0
  0
LINE
  5
E8C
330
1F
100
AcDbEntity
  8
NETAFIM-L-DETL-035M
  6
Continuous
100
AcDbLine
 10
3.633805139863653
 20
6.174074169738519
 30
0.0
 11
3.603805139863656
 21
6.174074169738519
 31
0.0
  0
LINE
  5
E8D
330
1F
100
AcDbEntity
  8
NETAFIM-L-DETL-035M
  6
Continuous
100
AcDbLine
 10
3.603805139863656
 20
6.174074169738519
 30
0.0
 11
3.582580139863654
 21
6.174074169738519
 31
0.0
  0
LINE
  5
E8E
330
1F
100
AcDbEntity
  8
NETAFIM-L-DETL-035M
  6
Continuous
100
AcDbLine
 10
3.582580139863654
 20
6.174074169738519
 30
0.0
 11
3.574480139863656
 21
6.174074169738519
 31
0.0
  0
LINE
  5
E8F
330
1F
100
AcDbEntity
  8
NETAFIM-L-DETL-035M
  6
Continuous
100
AcDbLine
 10
3.574480139863656
 20
6.174074169738519
 30
0.0
 11
3.554905139863652
 21
6.176099169738519
 31
0.0
  0
LINE
  5
E90
330
1F
100
AcDbEntity
  8
NETAFIM-L-DETL-035M
  6
Continuous
100
AcDbLine
 10
3.554905139863652
 20
6.176099169738519
 30
0.0
 11
3.536680139863655
 21
6.181799169738518
 31
0.0
  0
LINE
  5
E91
330
1F
100
AcDbEntity
  8
NETAFIM-L-DETL-035M
  6
Continuous
100
AcDbLine
 10
3.536680139863655
 20
6.181799169738518
 30
0.0
 11
3.520030139863653
 21
6.190874169738519
 31
0.0
  0
LINE
  5
E92
330
1F
100
AcDbEntity
  8
NETAFIM-L-DETL-035M
  6
Continuous
100
AcDbLine
 10
3.520030139863653
 20
6.190874169738519
 30
0.0
 11
3.505555139863655
 21
6.202799169738518
 31
0.0
  0
LINE
  5
E93
330
1F
100
AcDbEntity
  8
NETAFIM-L-DETL-035M
  6
Continuous
100
AcDbLine
 10
3.505555139863655
 20
6.202799169738518
 30
0.0
 11
3.493630139863654
 21
6.217274169738518
 31
0.0
  0
LINE
  5
E94
330
1F
100
AcDbEntity
  8
NETAFIM-L-DETL-035M
  6
Continuous
100
AcDbLine
 10
3.493630139863654
 20
6.217274169738518
 30
0.0
 11
3.484555139863655
 21
6.23392416973852
 31
0.0
  0
LINE
  5
E95
330
1F
100
AcDbEntity
  8
NETAFIM-L-DETL-035M
  6
Continuous
100
AcDbLine
 10
3.484555139863655
 20
6.23392416973852
 30
0.0
 11
3.478855139863654
 21
6.252149169738519
 31
0.0
  0
LINE
  5
E96
330
1F
100
AcDbEntity
  8
NETAFIM-L-DETL-035M
  6
Continuous
100
AcDbLine
 10
3.478855139863654
 20
6.252149169738519
 30
0.0
 11
3.476830139863654
 21
6.271724169738519
 31
0.0
  0
LINE
  5
E97
330
1F
100
AcDbEntity
  8
NETAFIM-L-DETL-035M
  6
Continuous
100
AcDbLine
 10
3.476830139863654
 20
6.271724169738519
 30
0.0
 11
3.476830139863654
 21
6.289874169738519
 31
0.0
  0
LINE
  5
E98
330
1F
100
AcDbEntity
  8
NETAFIM-L-DETL-035M
  6
Continuous
100
AcDbLine
 10
3.476830139863654
 20
6.289874169738519
 30
0.0
 11
3.476830139863654
 21
6.337649169738519
 31
0.0
  0
LINE
  5
E99
330
1F
100
AcDbEntity
  8
NETAFIM-L-DETL-035M
  6
Continuous
100
AcDbLine
 10
3.476830139863654
 20
6.337649169738519
 30
0.0
 11
3.476830139863654
 21
6.405224169738518
 31
0.0
  0
LINE
  5
E9A
330
1F
100
AcDbEntity
  8
NETAFIM-L-DETL-035M
  6
Continuous
100
AcDbLine
 10
3.476830139863654
 20
6.405224169738518
 30
0.0
 11
3.476830139863654
 21
6.48269916973852
 31
0.0
  0
LINE
  5
E9B
330
1F
100
AcDbEntity
  8
NETAFIM-L-DETL-035M
  6
Continuous
100
AcDbLine
 10
3.476830139863654
 20
6.48269916973852
 30
0.0
 11
3.476830139863654
 21
6.560174169738518
 31
0.0
  0
LINE
  5
E9C
330
1F
100
AcDbEntity
  8
NETAFIM-L-DETL-035M
  6
Continuous
100
AcDbLine
 10
3.476830139863654
 20
6.560174169738518
 30
0.0
 11
3.476830139863654
 21
6.627674169738519
 31
0.0
  0
LINE
  5
E9D
330
1F
100
AcDbEntity
  8
NETAFIM-L-DETL-035M
  6
Continuous
100
AcDbLine
 10
3.476830139863654
 20
6.627674169738519
 30
0.0
 11
3.476830139863654
 21
6.675524169738519
 31
0.0
  0
LINE
  5
E9E
330
1F
100
AcDbEntity
  8
NETAFIM-L-DETL-035M
  6
Continuous
100
AcDbLine
 10
3.476830139863654
 20
6.675524169738519
 30
0.0
 11
3.476830139863654
 21
6.693599169738519
 31
0.0
  0
LINE
  5
E9F
330
1F
100
AcDbEntity
  8
NETAFIM-L-DETL-035M
  6
Continuous
100
AcDbLine
 10
3.476830139863654
 20
6.693599169738519
 30
0.0
 11
3.478855139863654
 21
6.713174169738518
 31
0.0
  0
LINE
  5
EA0
330
1F
100
AcDbEntity
  8
NETAFIM-L-DETL-035M
  6
Continuous
100
AcDbLine
 10
3.478855139863654
 20
6.713174169738518
 30
0.0
 11
3.484555139863655
 21
6.731474169738518
 31
0.0
  0
LINE
  5
EA1
330
1F
100
AcDbEntity
  8
NETAFIM-L-DETL-035M
  6
Continuous
100
AcDbLine
 10
3.484555139863655
 20
6.731474169738518
 30
0.0
 11
3.493630139863654
 21
6.74804916973852
 31
0.0
  0
LINE
  5
EA2
330
1F
100
AcDbEntity
  8
NETAFIM-L-DETL-035M
  6
Continuous
100
AcDbLine
 10
3.493630139863654
 20
6.74804916973852
 30
0.0
 11
3.505555139863655
 21
6.762524169738519
 31
0.0
  0
LINE
  5
EA3
330
1F
100
AcDbEntity
  8
NETAFIM-L-DETL-035M
  6
Continuous
100
AcDbLine
 10
3.505555139863655
 20
6.762524169738519
 30
0.0
 11
3.520030139863653
 21
6.774524169738519
 31
0.0
  0
LINE
  5
EA4
330
1F
100
AcDbEntity
  8
NETAFIM-L-DETL-035M
  6
Continuous
100
AcDbLine
 10
3.520030139863653
 20
6.774524169738519
 30
0.0
 11
3.536680139863655
 21
6.78352416973852
 31
0.0
  0
LINE
  5
EA5
330
1F
100
AcDbEntity
  8
NETAFIM-L-DETL-035M
  6
Continuous
100
AcDbLine
 10
3.536680139863655
 20
6.78352416973852
 30
0.0
 11
3.554905139863652
 21
6.789299169738519
 31
0.0
  0
LINE
  5
EA6
330
1F
100
AcDbEntity
  8
NETAFIM-L-DETL-035M
  6
Continuous
100
AcDbLine
 10
3.554905139863652
 20
6.789299169738519
 30
0.0
 11
3.574480139863656
 21
6.79124916973852
 31
0.0
  0
LINE
  5
EA7
330
1F
100
AcDbEntity
  8
NETAFIM-L-DETL-035M
  6
Continuous
100
AcDbLine
 10
3.574480139863656
 20
6.79124916973852
 30
0.0
 11
3.578530139863651
 21
6.79124916973852
 31
0.0
  0
LINE
  5
EA8
330
1F
100
AcDbEntity
  8
NETAFIM-L-DETL-035M
  6
Continuous
100
AcDbLine
 10
3.578530139863651
 20
6.79124916973852
 30
0.0
 11
3.589180139863653
 21
6.79124916973852
 31
0.0
  0
LINE
  5
EA9
330
1F
100
AcDbEntity
  8
NETAFIM-L-DETL-035M
  6
Continuous
100
AcDbLine
 10
3.589180139863653
 20
6.79124916973852
 30
0.0
 11
3.604180139863654
 21
6.79124916973852
 31
0.0
  0
LINE
  5
EAA
330
1F
100
AcDbEntity
  8
NETAFIM-L-DETL-035M
  6
Continuous
100
AcDbLine
 10
3.604180139863654
 20
6.79124916973852
 30
0.0
 11
3.621355139863656
 21
6.79124916973852
 31
0.0
  0
LINE
  5
EAB
330
1F
100
AcDbEntity
  8
NETAFIM-L-DETL-035M
  6
Continuous
100
AcDbLine
 10
3.621355139863656
 20
6.79124916973852
 30
0.0
 11
3.638605139863653
 21
6.79124916973852
 31
0.0
  0
LINE
  5
EAC
330
1F
100
AcDbEntity
  8
NETAFIM-L-DETL-035M
  6
Continuous
100
AcDbLine
 10
3.638605139863653
 20
6.79124916973852
 30
0.0
 11
3.653605139863653
 21
6.79124916973852
 31
0.0
  0
LINE
  5
EAD
330
1F
100
AcDbEntity
  8
NETAFIM-L-DETL-035M
  6
Continuous
100
AcDbLine
 10
3.653605139863653
 20
6.79124916973852
 30
0.0
 11
3.664255139863652
 21
6.79124916973852
 31
0.0
  0
LINE
  5
EAE
330
1F
100
AcDbEntity
  8
NETAFIM-L-DETL-035M
  6
Continuous
100
AcDbLine
 10
3.664255139863652
 20
6.79124916973852
 30
0.0
 11
3.668230139863656
 21
6.79124916973852
 31
0.0
  0
LEADER
  5
123A
330
1F
100
AcDbEntity
  8
NETAFIM-L-DETL-TEXT-LEADER-025M
100
AcDbLeader
  3
Netafim Detail
 76
     3
 10
4.415589535855162
 20
4.827153807280557
 30
0.0
 10
4.215376153190605
 20
4.82716367344419
 30
0.0
 10
4.208475628726731
 20
4.82716367344419
 30
0.0
211
-1.0
221
0.0
231
0.0
1001
ACAD
1000
DSTYLE
1002
{
1070
    41
1040
0.09
1002
}
  0
LEADER
  5
123B
330
1F
100
AcDbEntity
  8
NETAFIM-L-DETL-TEXT-LEADER-025M
100
AcDbLeader
  3
Netafim Detail
 76
     3
 10
4.170801058000524
 20
4.827228810326882
 30
0.0
 10
4.375238721160963
 20
4.827123978774344
 30
0.0
 10
4.400540644195162
 20
4.827227459656986
 30
0.0
1001
ACAD
1000
DSTYLE
1002
{
1070
    41
1040
0.09
1002
}
  0
MTEXT
  5
126B
330
1F
100
AcDbEntity
  8
NETAFIM-D-NPLT
100
AcDbMText
 10
-0.7827171174748458
 20
0.2352495300830739
 30
0.0
 40
0.06
 41
6.843161446901433
 71
     1
 72
     5
  3
{\fArial|b0|i0|c0|p34;LIMITATIONS:\P\PALLOWING FOR A WIDE VARIETY OF APPLICATIONS AND CONDITIONS, NETAFIM IRRIGATION INC. IS NOT RESPONSIBLE FOR CORRECTNESS OR APPLICABILITY TO PURPOSE OR COMPATIBILITY TO ANY SITE OR JOB CONDITION. WARRANTY FOR SUITA
  3
BILITY IS NOT GIVEN OR IMPLIED. MODIFICATIONS FOR SPECIFIC PURPOSES MAY BE NECESSARY AND ARE THE SPECIFIERS' RESPONSIBILITY. THE USE OF THESE DETAILS SHALL NOT BE RESTRICTED AND PUBLICATION THEREOF IS NOT LIMITED TO ANY PURPOSE.  REPRODUCTION, PUBLIC
  1
ATION AND REUSE BY ANY METHOD IN WHOLE OR PART IS FULLY AUTHORIZED. OWNERSHIP IS RETAINED BY NETAFIM IRRIGATION INC.  VISUAL CONTACT WITH THESE DETAILS SHALL CONSTITUTE PRIMA FACIA EVIDENCE OF THE ACCEPTANCE OF THESE RESTRICTIONS.}
  7
DETAIL TEXT
 11
0.0000000000000001
 21
1.0
 31
0.0
 73
     1
 44
1.0
1001
ACAD
1000
ACAD_MTEXT_COLUMN_INFO_BEGIN
1070
    75
1070
     2
1070
    79
1070
     0
1070
    76
1070
     1
1070
    78
1070
     0
1070
    48
1040
6.843161446901433
1070
    49
1040
0.45
1070
    50
1070
     1
1040
0.0
1000
ACAD_MTEXT_COLUMN_INFO_END
  0
LWPOLYLINE
  5
126C
330
1F
100
AcDbEntity
  8
NETAFIM-D-NPLT
100
AcDbPolyline
 90
        4
 70
     1
 43
0.0
 10
0.0
 20
7.124999999999998
 10
-0.8951802582263113
 20
7.124999999999998
 10
-0.8951802582263113
 20
0.0
 10
0.0
 20
0.0
  0
ENDSEC
  0
SECTION
  2
OBJECTS
  0
DICTIONARY
  5
C
330
0
100
AcDbDictionary
281
     1
  3
ACAD_BACKGROUND
350
7B5
  3
ACAD_COLOR
350
73
  3
ACAD_GROUP
350
D
  3
ACAD_LAYOUT
350
1A
  3
ACAD_MATERIAL
350
72
  3
ACAD_MLEADERSTYLE
350
D7
  3
ACAD_MLINESTYLE
350
17
  3
ACAD_PLOTSETTINGS
350
19
  3
ACAD_PLOTSTYLENAME
350
E
  3
ACAD_SCALELIST
350
B6
  3
ACAD_TABLESTYLE
350
86
  3
ACAD_VISUALSTYLE
350
99
  3
AcadDim
350
CC8
  3
ACDB_RECOMPOSE_DATA
350
1349
  3
AcDbVariableDictionary
350
66
  3
ADE_QUERY_LIBRARY
350
18F
  3
AEC_PROPERTY_SET_DEFS
350
1267
  3
ASE_INDEX_DICTIONARY
350
1FA
  3
Autodesk_MAP
350
179
1001
ADE
1000
ADE02C004
1000
[Query]
1000
CaseSensitiveMatch=0
1000
SaveCurrQueryInSession=1
1000
MkSelSetWithQryObj=0
1000
ShowBlockAsInsPt=0
1000
CreateAssociativeHatchObjects=0
1000
ReferenceBoundaryForAreaLocation=1
1000
ShowImageAsBoundary=1
1000
DefaultJoinOperator=2
1000
ColorForAdd=red
1000
ColorForRemove=red
1000
BlockLocnForQuery=1
1000
TextLocnForQuery=1
1000
IncludeAllObjectsInGroups=0
1000
AlwaysUseLibraryDefinitions=0
1000
PreviewDefinitionsFrom=2
1000
[Save Back]
1000
RedefineBlockDefinitions=1
1000
RedefineLayerDefinitions=1
1000
RedefineTextStyleDefinitions=1
1000
RemoveUnusedGroups=1
1000
EraseSavedBackObjects=1
1000
RemoveLockAfterSave=1
1000
CreateHistoryFileOfChanges=0
1000
CreateBackupFileOfSourceDwg=1
1000
DontAddObjectsToSaveSet=0
1000
MarkObjectsForEditingWithoutPrompting=0
1000
FdoDontAddObjsToSvSet=0
1000
FdoEditWithoutPrompt=1
1000
FdoRemUnusedGrps=1
1000
FdoEraseSvdBkObjs=1
1000
FdoRemoveLockOnSave=1
1000
FdoTesselationMaxPointsDistance=0
1000
FdoTesselationMaxCurvesDistance=0
1000
[Coordinate Transformation]
1000
RestoreLastActiveDwgsOnStartup=1
1000
ActivateDwgsOnAttach=1
1000
AdjustSizesAndScalesForChangesInUnits=1
1000
AdjustRotationsForMapDistortions=1
1000
AdjustSizesAndScalesForMapDistortions=1
1000
AdjustElevations=1
1000
AdjustZeroRotationObjects=1
1000
ReconnectDbOnWSOpen=1
1000
NoOfSQLConditionsInHistory=10
  0
DICTIONARY
  5
12A0
330
8
100
AcDbDictionary
280
     1
281
     1
  0
DICTIONARY
  5
20C
330
2
100
AcDbDictionary
280
     1
281
     1
  3
ACAD_LAYERSTATES
360
20D
  0
DICTIONARY
  5
E6
330
10
100
AcDbDictionary
280
     1
281
     1
  0
DICTIONARY
  5
802
330
801
100
AcDbDictionary
280
     1
281
     1
  0
DICTIONARY
  5
804
330
803
100
AcDbDictionary
280
     1
281
     1
  0
DICTIONARY
  5
806
330
805
100
AcDbDictionary
280
     1
281
     1
  0
DICTIONARY
  5
80F
330
80E
100
AcDbDictionary
280
     1
281
     1
  0
DICTIONARY
  5
15D
330
1F
100
AcDbDictionary
280
     1
281
     1
  3
ACAD_GEOGRAPHICDATA
360
18D
  3
ACAD_SORTENTS
360
188
  0
DICTIONARY
  5
7B5
102
{ACAD_REACTORS
330
C
102
}
330
C
100
AcDbDictionary
281
     1
  0
DICTIONARY
  5
73
102
{ACAD_REACTORS
330
C
102
}
330
C
100
AcDbDictionary
281
     1
  0
DICTIONARY
  5
D
102
{ACAD_REACTORS
330
C
102
}
330
C
100
AcDbDictionary
281
     1
  0
DICTIONARY
  5
1A
102
{ACAD_REACTORS
330
C
102
}
330
C
100
AcDbDictionary
281
     1
  3
Layout1
350
59
  3
Layout2
350
5E
  3
Model
350
22
  0
DICTIONARY
  5
72
102
{ACAD_REACTORS
330
C
102
}
330
C
100
AcDbDictionary
281
     1
  3
ByBlock
350
97
  3
ByLayer
350
96
  3
Global
350
98
  0
DICTIONARY
  5
D7
102
{ACAD_REACTORS
330
C
102
}
330
C
100
AcDbDictionary
281
     1
  3
Netafim Detail
350
813
  3
Standard
350
D8
  0
DICTIONARY
  5
17
102
{ACAD_REACTORS
330
C
102
}
330
C
100
AcDbDictionary
281
     1
  3
Standard
350
18
  0
DICTIONARY
  5
19
102
{ACAD_REACTORS
330
C
102
}
330
C
100
AcDbDictionary
281
     1
  0
ACDBDICTIONARYWDFLT
  5
E
102
{ACAD_REACTORS
330
C
102
}
330
C
100
AcDbDictionary
281
     1
  3
Normal
350
F
100
AcDbDictionaryWithDefault
340
F
  0
DICTIONARY
  5
B6
102
{ACAD_REACTORS
330
C
102
}
330
C
100
AcDbDictionary
281
     1
  3
A0
350
B7
  3
A1
350
124
  3
A2
350
125
  3
A3
350
126
  3
A4
350
127
  3
A5
350
128
  3
A6
350
129
  3
A7
350
12A
  3
A8
350
12B
  3
A9
350
12C
  3
B0
350
12D
  3
B1
350
12E
  3
B2
350
12F
  3
B3
350
130
  3
B4
350
131
  3
B5
350
132
  3
B6
350
133
  3
B7
350
134
  3
B8
350
135
  3
B9
350
136
  3
C0
350
137
  3
C1
350
138
  3
C2
350
139
  3
C3
350
13A
  3
C4
350
13B
  3
C5
350
13C
  3
C6
350
13D
  3
C7
350
13E
  3
C8
350
13F
  3
C9
350
140
  3
D0
350
141
  3
D1
350
142
  3
D2
350
143
  0
DICTIONARY
  5
86
102
{ACAD_REACTORS
330
C
102
}
330
C
100
AcDbDictionary
281
     1
  3
Legend
350
181
  3
Standard
350
87
  0
DICTIONARY
  5
99
102
{ACAD_REACTORS
330
C
102
}
330
C
100
AcDbDictionary
281
     1
  3
2dWireframe
350
9F
  3
3D Hidden
350
A1
  3
3dWireframe
350
A0
  3
Basic
350
9E
  3
Brighten
350
A5
  3
ColorChange
350
A9
  3
Conceptual
350
A2
  3
Dim
350
A4
  3
EdgeColorOff
350
175
  3
Facepattern
350
A8
  3
Flat
350
9A
  3
FlatWithEdges
350
9B
  3
Gouraud
350
9C
  3
GouraudWithEdges
350
9D
  3
Hidden
350
1AE
  3
JitterOff
350
173
  3
Linepattern
350
A7
  3
OverhangOff
350
174
  3
Realistic
350
A3
  3
Shaded
350
1B1
  3
Shaded with edges
350
1B4
  3
Shades of Gray
350
1B7
  3
Sketchy
350
1BA
  3
Thicken
350
A6
  3
Wireframe
350
1BD
  3
X-Ray
350
1C0
  0
XRECORD
  5
CC8
102
{ACAD_REACTORS
330
C
102
}
330
C
100
AcDbXrecord
280
     1
 90
   990106
 72
     0
 63
     1
  0
XRECORD
  5
1349
102
{ACAD_REACTORS
330
C
102
}
330
C
100
AcDbXrecord
280
     1
 90
        1
330
87
330
181
330
126B
  0
DICTIONARY
  5
66
102
{ACAD_REACTORS
330
C
102
}
330
C
100
AcDbDictionary
281
     1
  3
CANNOSCALE
350
F0
  3
CMLEADERSTYLE
350
EF
  3
CTABLESTYLE
350
89
  3
DIMASSOC
350
67
  3
HIDETEXT
350
6B
  3
LAYEREVAL
350
14D
  3
LAYERNOTIFY
350
14E
  3
LIGHTINGUNITS
350
6D8
  3
MSLTSCALE
350
12CF
  3
STEPSIZE
350
12D0
  3
XCLIPFRAME
350
12DD
  0
DICTIONARY
  5
18F
102
{ACAD_REACTORS
330
C
102
}
330
C
100
AcDbDictionary
281
     1
  3
_CurrQry
350
133F
  0
DICTIONARY
  5
1267
102
{ACAD_REACTORS
330
C
102
}
330
C
100
AcDbDictionary
281
     1
  0
DICTIONARY
  5
1FA
102
{ACAD_REACTORS
330
C
102
}
330
C
100
AcDbDictionary
281
     1
  3
ASEBlockHierarchyIndexRecord
350
1FB
1001
DCO15
1040
1758258060.176
  0
DICTIONARY
  5
179
102
{ACAD_REACTORS
330
C
102
}
330
C
100
AcDbDictionary
281
     1
  3
AcMapDMStylizedEntities
350
189
  3
FSD_Dictionary
350
18A
  3
MAP_DISPLAY_CUSTOMOBJ_REG_TABLE
350
17D
  3
MAP_DISPLAY_MANAGEMENT_DICTIONARY
350
17A
  3
MAP_DISPLAY_STYLELIBRARY_DICTIONARY
350
17B
  3
MAP_RESOURCE_VERSION_MANAGEMENT_DICTIONARY
350
17E
1001
MapGWS
1000
D:\ProgramData\Autodesk\AutoCAD Map 3D 2010\R18.0\MapCache\C101-Techline_CV_END_FEED_LAYOUTGWS1344877538.xml
  0
DICTIONARY
  5
20D
102
{ACAD_REACTORS
330
20C
102
}
330
20C
100
AcDbDictionary
281
     1
  3
DETAILS
350
CBC
  0
GEODATA
  5
18D
102
{ACAD_REACTORS
330
15D
102
}
330
15D
100
AcDbGeoData
 90
        1
 70
     0
330
1F
 40
37.795
 41
-122.394
 42
0.0
 91
        6
 10
0.0
 20
0.0
 30
0.0
 11
0.0
 21
0.0
 31
0.0
210
0.0
220
0.0
230
1.0
 52
0.0
 43
1.0
 44
1.0
 45
1.0
301

302
<georss:point>37.7950 -122.3940</georss:point>
 46
1.0
303

304

305

306

307

 93
        0
 96
        0
  3
CIVIL3D_DATA_BEGIN
292
     0
 14
-122.394
 24
37.795
 15
-122.394
 25
37.795
 93
        0
 94
        0
293
     0
 16
0.0
 26
0.0
 17
0.0
 27
0.0
 54
0.0
140
0.0
 95
        3
141
1.0
294
     0
142
0.0
143
0.0
  4
CIVIL3D_DATA_END
  0
SORTENTSTABLE
  5
188
102
{ACAD_REACTORS
330
15D
102
}
330
15D
100
AcDbSortentsTable
330
1F
331
CFF
  5
CFD
331
A42
  5
A42
331
A81
  5
A81
331
EA8
  5
EA6
331
E32
  5
E30
331
DBC
  5
DBA
331
D46
  5
D44
331
A4A
  5
A4A
331
D07
  5
D05
331
E3A
  5
E38
331
DC4
  5
DC2
331
D4E
  5
D4C
331
D0F
  5
D0D
331
D85
  5
D83
331
DFB
  5
DF9
331
E71
  5
E6F
331
E42
  5
E40
331
DCC
  5
DCA
331
D56
  5
D54
331
D17
  5
D15
331
D8D
  5
D8B
331
E03
  5
E01
331
E79
  5
E77
331
A52
  5
A52
331
A89
  5
A89
331
CD0
  5
CCE
331
E4A
  5
E48
331
DD4
  5
DD2
331
D5E
  5
D5C
331
D1F
  5
D1D
331
D95
  5
D93
331
E0B
  5
E09
331
E81
  5
E7F
331
A5A
  5
A5A
331
A91
  5
A91
331
CD8
  5
CD6
331
E52
  5
E50
331
DDC
  5
DDA
331
D66
  5
D64
331
D27
  5
D25
331
D9D
  5
D9B
331
E13
  5
E11
331
E89
  5
E87
331
A62
  5
A62
331
A99
  5
A99
331
CE0
  5
CDE
331
A6A
  5
A6A
331
AA1
  5
AA1
331
CE8
  5
CE6
331
E5A
  5
E58
331
DE4
  5
DE2
331
D6E
  5
D6C
331
D2F
  5
D2D
331
DA5
  5
DA3
331
E1B
  5
E19
331
E91
  5
E8F
331
E62
  5
E60
331
DEC
  5
DEA
331
D76
  5
D74
331
D37
  5
D35
331
DAD
  5
DAB
331
E23
  5
E21
331
E99
  5
E97
331
A72
  5
A72
331
AA9
  5
AA9
331
CF0
  5
CEE
331
CF8
  5
CF6
331
EA1
  5
E9F
331
E2B
  5
E29
331
DB5
  5
DB3
331
D3F
  5
D3D
331
D7E
  5
D7C
331
DF4
  5
DF2
331
E6A
  5
E68
331
A7A
  5
A7A
331
D00
  5
CFE
331
D47
  5
D45
331
DBD
  5
DBB
331
E33
  5
E31
331
EA9
  5
EA7
331
A43
  5
A43
331
A82
  5
A82
331
A4B
  5
A4B
331
D08
  5
D06
331
E3B
  5
E39
331
D4F
  5
D4D
331
D10
  5
D0E
331
D86
  5
D84
331
DC5
  5
DC3
331
DFC
  5
DFA
331
E72
  5
E70
331
E43
  5
E41
331
D18
  5
D16
331
D57
  5
D55
331
D8E
  5
D8C
331
DCD
  5
DCB
331
E04
  5
E02
331
E7A
  5
E78
331
A53
  5
A53
331
A8A
  5
A8A
331
CD1
  5
CCF
331
E4B
  5
E49
331
D5F
  5
D5D
331
D20
  5
D1E
331
D96
  5
D94
331
DD5
  5
DD3
331
E0C
  5
E0A
331
E82
  5
E80
331
A5B
  5
A5B
331
A92
  5
A92
331
CD9
  5
CD7
331
E53
  5
E51
331
D67
  5
D65
331
D9E
  5
D9C
331
DDD
  5
DDB
331
E14
  5
E12
331
E8A
  5
E88
331
A63
  5
A63
331
A9A
  5
A9A
331
CE1
  5
CDF
331
A6B
  5
A6B
331
AA2
  5
AA2
331
CE9
  5
CE7
331
D28
  5
D26
331
E5B
  5
E59
331
D6F
  5
D6D
331
D30
  5
D2E
331
DA6
  5
DA4
331
DE5
  5
DE3
331
E1C
  5
E1A
331
E92
  5
E90
331
E63
  5
E61
331
DED
  5
DEB
331
D77
  5
D75
331
D38
  5
D36
331
DAE
  5
DAC
331
E24
  5
E22
331
E9A
  5
E98
331
A73
  5
A73
331
AAA
  5
AAA
331
CF1
  5
CEF
331
CF9
  5
CF7
331
EA2
  5
EA0
331
E2C
  5
E2A
331
DB6
  5
DB4
331
D40
  5
D3E
331
D7F
  5
D7D
331
DF5
  5
DF3
331
E6B
  5
E69
331
A7B
  5
A7B
331
D01
  5
CFF
331
EAA
  5
EA8
331
E34
  5
E32
331
DBE
  5
DBC
331
A44
  5
A44
331
A83
  5
A83
331
A4C
  5
A4C
331
D48
  5
D46
331
D09
  5
D07
331
E3C
  5
E3A
331
D50
  5
D4E
331
D11
  5
D0F
331
D87
  5
D85
331
DC6
  5
DC4
331
DFD
  5
DFB
331
E73
  5
E71
331
E44
  5
E42
331
D58
  5
D56
331
D19
  5
D17
331
D8F
  5
D8D
331
DCE
  5
DCC
331
E05
  5
E03
331
E7B
  5
E79
331
A54
  5
A54
331
A8B
  5
A8B
331
CD2
  5
CD0
331
E4C
  5
E4A
331
D97
  5
D95
331
D60
  5
D5E
331
D21
  5
D1F
331
DD6
  5
DD4
331
E0D
  5
E0B
331
E83
  5
E81
331
A5C
  5
A5C
331
A93
  5
A93
331
CDA
  5
CD8
331
E54
  5
E52
331
D9F
  5
D9D
331
DDE
  5
DDC
331
E15
  5
E13
331
E8B
  5
E89
331
A64
  5
A64
331
A9B
  5
A9B
331
CE2
  5
CE0
331
A6C
  5
A6C
331
AA3
  5
AA3
331
CEA
  5
CE8
331
D68
  5
D66
331
D29
  5
D27
331
E5C
  5
E5A
331
D70
  5
D6E
331
D31
  5
D2F
331
DA7
  5
DA5
331
DE6
  5
DE4
331
E1D
  5
E1B
331
E93
  5
E91
331
E64
  5
E62
331
DEE
  5
DEC
331
DAF
  5
DAD
331
D39
  5
D37
331
D78
  5
D76
331
E25
  5
E23
331
E9B
  5
E99
331
A74
  5
A74
331
AAB
  5
AAB
331
CF2
  5
CF0
331
CFA
  5
CF8
331
A7C
  5
A7C
331
EA3
  5
EA1
331
E2D
  5
E2B
331
DB7
  5
DB5
331
D41
  5
D3F
331
DF6
  5
DF4
331
E6C
  5
E6A
331
A3D
  5
A3D
331
D02
  5
D00
331
EAB
  5
EA9
331
E35
  5
E33
331
DBF
  5
DBD
331
A45
  5
A45
331
A84
  5
A84
331
A4D
  5
A4D
331
CCB
  5
EAD
331
D49
  5
D47
331
D0A
  5
D08
331
D80
  5
D7E
331
E3D
  5
E3B
331
D51
  5
D4F
331
D12
  5
D10
331
D88
  5
D86
331
DC7
  5
DC5
331
DFE
  5
DFC
331
E74
  5
E72
331
E45
  5
E43
331
D59
  5
D57
331
D1A
  5
D18
331
D90
  5
D8E
331
DCF
  5
DCD
331
E06
  5
E04
331
E7C
  5
E7A
331
A55
  5
A55
331
A8C
  5
A8C
331
CD3
  5
CD1
331
E4D
  5
E4B
331
DD7
  5
DD5
331
D61
  5
D5F
331
D22
  5
D20
331
D98
  5
D96
331
E0E
  5
E0C
331
E84
  5
E82
331
A5D
  5
A5D
331
A94
  5
A94
331
CDB
  5
CD9
331
E55
  5
E53
331
DDF
  5
DDD
331
E16
  5
E14
331
E8C
  5
E8A
331
A65
  5
A65
331
A9C
  5
A9C
331
CE3
  5
CE1
331
A6D
  5
A6D
331
AA4
  5
AA4
331
CEB
  5
CE9
331
D69
  5
D67
331
D2A
  5
D28
331
DA0
  5
D9E
331
E5D
  5
E5B
331
D71
  5
D6F
331
D32
  5
D30
331
DA8
  5
DA6
331
DE7
  5
DE5
331
E1E
  5
E1C
331
E94
  5
E92
331
E65
  5
E63
331
DEF
  5
DED
331
D79
  5
D77
331
D3A
  5
D38
331
DB0
  5
DAE
331
E26
  5
E24
331
E9C
  5
E9A
331
A75
  5
A75
331
AAC
  5
AAC
331
CF3
  5
CF1
331
A7D
  5
A7D
331
E6D
  5
E6B
331
D42
  5
D40
331
DB8
  5
DB6
331
DF7
  5
DF5
331
E2E
  5
E2C
331
EA4
  5
EA2
331
A3E
  5
A3E
331
CFB
  5
CF9
331
A85
  5
A85
331
EAC
  5
EAA
331
E36
  5
E34
331
A46
  5
A46
331
D03
  5
D01
331
A4E
  5
A4E
331
D4A
  5
D48
331
D0B
  5
D09
331
D81
  5
D7F
331
DC0
  5
DBE
331
E3E
  5
E3C
331
D52
  5
D50
331
D13
  5
D11
331
D89
  5
D87
331
DC8
  5
DC6
331
DFF
  5
DFD
331
E75
  5
E73
331
E46
  5
E44
331
D5A
  5
D58
331
D1B
  5
D19
331
D91
  5
D8F
331
DD0
  5
DCE
331
E07
  5
E05
331
E7D
  5
E7B
331
A56
  5
A56
331
A8D
  5
A8D
331
CD4
  5
CD2
331
E4E
  5
E4C
331
E0F
  5
E0D
331
D62
  5
D60
331
D23
  5
D21
331
D99
  5
D97
331
DD8
  5
DD6
331
E85
  5
E83
331
A5E
  5
A5E
331
A95
  5
A95
331
CDC
  5
CDA
331
E56
  5
E54
331
E17
  5
E15
331
E8D
  5
E8B
331
A66
  5
A66
331
A9D
  5
A9D
331
CE4
  5
CE2
331
A6E
  5
A6E
331
AA5
  5
AA5
331
CEC
  5
CEA
331
D6A
  5
D68
331
D2B
  5
D29
331
DA1
  5
D9F
331
DE0
  5
DDE
331
E5E
  5
E5C
331
DE8
  5
DE6
331
D72
  5
D70
331
D33
  5
D31
331
DA9
  5
DA7
331
E1F
  5
E1D
331
E95
  5
E93
331
E66
  5
E64
331
E27
  5
E25
331
DB1
  5
DAF
331
D3B
  5
D39
331
D7A
  5
D78
331
DF0
  5
DEE
331
E9D
  5
E9B
331
A76
  5
A76
331
AAD
  5
AAD
331
CF4
  5
CF2
331
EA5
  5
EA3
331
E2F
  5
E2D
331
D43
  5
D41
331
DB9
  5
DB7
331
E6E
  5
E6C
331
A7E
  5
A7E
331
CFC
  5
CFA
331
EAD
  5
EAB
331
E37
  5
E35
331
A47
  5
A47
331
A86
  5
A86
331
D04
  5
D02
331
A4F
  5
A4F
331
D4B
  5
D49
331
D0C
  5
D0A
331
D82
  5
D80
331
DC1
  5
DBF
331
DF8
  5
DF6
331
E3F
  5
E3D
331
D53
  5
D51
331
D14
  5
D12
331
D8A
  5
D88
331
DC9
  5
DC7
331
E00
  5
DFE
331
E76
  5
E74
331
D5B
  5
D59
331
D1C
  5
D1A
331
D92
  5
D90
331
DD1
  5
DCF
331
E08
  5
E06
331
E47
  5
E45
331
E7E
  5
E7C
331
A57
  5
A57
331
A8E
  5
A8E
331
CD5
  5
CD3
331
CDD
  5
CDB
331
E4F
  5
E4D
331
D63
  5
D61
331
D24
  5
D22
331
D9A
  5
D98
331
DD9
  5
DD7
331
E10
  5
E0E
331
E86
  5
E84
331
A5F
  5
A5F
331
A96
  5
A96
331
CE5
  5
CE3
331
E57
  5
E55
331
E8E
  5
E8C
331
A67
  5
A67
331
A9E
  5
A9E
331
CED
  5
CEB
331
A6F
  5
A6F
331
AA6
  5
AA6
331
D6B
  5
D69
331
D2C
  5
D2A
331
DA2
  5
DA0
331
DE1
  5
DDF
331
E18
  5
E16
331
E5F
  5
E5D
331
E20
  5
E1E
331
DAA
  5
DA8
331
D34
  5
D32
331
D73
  5
D71
331
DE9
  5
DE7
331
E96
  5
E94
331
CF5
  5
CF3
331
E9E
  5
E9C
331
E67
  5
E65
331
E28
  5
E26
331
DB2
  5
DB0
331
D3C
  5
D3A
331
D7B
  5
D79
331
DF1
  5
DEF
331
A77
  5
A77
331
CFD
  5
CFB
331
A7F
  5
A7F
331
EA6
  5
EA4
331
E30
  5
E2E
331
D44
  5
D42
331
DBA
  5
DB8
331
E6F
  5
E6D
331
A40
  5
A40
331
D05
  5
D03
331
EAE
  5
EAC
331
A48
  5
A48
331
A87
  5
A87
331
CCE
  5
EAE
331
E38
  5
E36
331
D4C
  5
D4A
331
D0D
  5
D0B
331
D83
  5
D81
331
DC2
  5
DC0
331
DF9
  5
DF7
331
E40
  5
E3E
331
D54
  5
D52
331
D15
  5
D13
331
D8B
  5
D89
331
DCA
  5
DC8
331
E01
  5
DFF
331
E77
  5
E75
331
A50
  5
A50
331
CD6
  5
CD4
331
E48
  5
E46
331
D5C
  5
D5A
331
D1D
  5
D1B
331
D93
  5
D91
331
DD2
  5
DD0
331
E09
  5
E07
331
E7F
  5
E7D
331
A58
  5
A58
331
A8F
  5
A8F
331
CDE
  5
CDC
331
E87
  5
E85
331
E50
  5
E4E
331
D64
  5
D62
331
D25
  5
D23
331
D9B
  5
D99
331
DDA
  5
DD8
331
E11
  5
E0F
331
A60
  5
A60
331
A97
  5
A97
331
CE6
  5
CE4
331
A9F
  5
A9F
331
E8F
  5
E8D
331
A68
  5
A68
331
CEE
  5
CEC
331
AA7
  5
AA7
331
E58
  5
E56
331
D6C
  5
D6A
331
D2D
  5
D2B
331
DA3
  5
DA1
331
DE2
  5
DE0
331
E19
  5
E17
331
E60
  5
E5E
331
DEA
  5
DE8
331
D74
  5
D72
331
D35
  5
D33
331
DAB
  5
DA9
331
E21
  5
E1F
331
E97
  5
E95
331
A70
  5
A70
331
E9F
  5
E9D
331
E29
  5
E27
331
DB3
  5
DB1
331
D3D
  5
D3B
331
D7C
  5
D7A
331
DF2
  5
DF0
331
E68
  5
E66
331
A78
  5
A78
331
CF6
  5
CF4
331
CFE
  5
CFC
331
EA7
  5
EA5
331
E31
  5
E2F
331
D45
  5
D43
331
DBB
  5
DB9
331
A41
  5
A41
331
A80
  5
A80
331
A49
  5
A49
331
D06
  5
D04
331
CCF
  5
CCB
331
E39
  5
E37
331
DC3
  5
DC1
331
D4D
  5
D4B
331
D0E
  5
D0C
331
D84
  5
D82
331
DFA
  5
DF8
331
E70
  5
E6E
331
E41
  5
E3F
331
DCB
  5
DC9
331
D55
  5
D53
331
D16
  5
D14
331
D8C
  5
D8A
331
E02
  5
E00
331
E78
  5
E76
331
A51
  5
A51
331
A88
  5
A88
331
E49
  5
E47
331
DD3
  5
DD1
331
D5D
  5
D5B
331
D1E
  5
D1C
331
D94
  5
D92
331
E0A
  5
E08
331
E80
  5
E7E
331
A59
  5
A59
331
A90
  5
A90
331
CD7
  5
CD5
331
E51
  5
E4F
331
DDB
  5
DD9
331
D65
  5
D63
331
D26
  5
D24
331
D9C
  5
D9A
331
E12
  5
E10
331
E88
  5
E86
331
A61
  5
A61
331
A98
  5
A98
331
CDF
  5
CDD
331
CE7
  5
CE5
331
A69
  5
A69
331
AA0
  5
AA0
331
CEF
  5
CED
331
E59
  5
E57
331
DE3
  5
DE1
331
D6D
  5
D6B
331
D2E
  5
D2C
331
DA4
  5
DA2
331
E1A
  5
E18
331
E90
  5
E8E
331
E61
  5
E5F
331
DEB
  5
DE9
331
D75
  5
D73
331
D36
  5
D34
331
DAC
  5
DAA
331
E22
  5
E20
331
E98
  5
E96
331
A71
  5
A71
331
AA8
  5
AA8
331
A79
  5
A79
331
CF7
  5
CF5
331
EA0
  5
E9E
331
E2A
  5
E28
331
DB4
  5
DB2
331
D3E
  5
D3C
331
D7D
  5
D7B
331
DF3
  5
DF1
331
E69
  5
E67
  0
LAYOUT
  5
59
102
{ACAD_REACTORS
330
1A
102
}
330
1A
100
AcDbPlotSettings
  1

  2
None
  4

  6

 40
0.0
 41
0.0
 42
0.0
 43
0.0
 44
0.0
 45
0.0
 46
0.0
 47
0.0
 48
0.0
 49
0.0
140
0.0
141
0.0
142
1.0
143
1.0
 70
   688
 72
     0
 73
     0
 74
     5
  7
NETAFIM.ctb
 75
    16
147
1.0
 76
     0
 77
     2
 78
   300
148
0.0
149
0.0
100
AcDbLayout
  1
Layout1
 70
     1
 71
     1
 10
0.0
 20
0.0
 11
12.0
 21
9.0
 12
0.0
 22
0.0
 32
0.0
 14
0.0
 24
0.0
 34
0.0
 15
0.0
 25
0.0
 35
0.0
146
0.0
 13
0.0
 23
0.0
 33
0.0
 16
1.0
 26
0.0
 36
0.0
 17
0.0
 27
1.0
 37
0.0
 76
     0
330
58
  0
LAYOUT
  5
5E
102
{ACAD_REACTORS
330
1A
102
}
330
1A
100
AcDbPlotSettings
  1

  2
None
  4

  6

 40
0.0
 41
0.0
 42
0.0
 43
0.0
 44
0.0
 45
0.0
 46
0.0
 47
0.0
 48
0.0
 49
0.0
140
0.0
141
0.0
142
1.0
143
1.0
 70
   688
 72
     0
 73
     0
 74
     5
  7
NETAFIM.ctb
 75
    16
147
1.0
 76
     0
 77
     2
 78
   300
148
0.0
149
0.0
100
AcDbLayout
  1
Layout2
 70
     1
 71
     2
 10
0.0
 20
0.0
 11
12.0
 21
9.0
 12
0.0
 22
0.0
 32
0.0
 14
0.0
 24
0.0
 34
0.0
 15
0.0
 25
0.0
 35
0.0
146
0.0
 13
0.0
 23
0.0
 33
0.0
 16
1.0
 26
0.0
 36
0.0
 17
0.0
 27
1.0
 37
0.0
 76
     0
330
5D
  0
LAYOUT
  5
22
102
{ACAD_XDICTIONARY
360
74D
102
}
102
{ACAD_REACTORS
330
1A
102
}
330
1A
100
AcDbPlotSettings
  1

  2
Adobe PDF
  4
Letter
  6

 40
3.174999952316284
 41
3.174999952316284
 42
3.175003051757812
 43
3.17498779296875
 44
215.8999938964844
 45
279.3999938964844
 46
14.28342595487883
 47
14.05544802015552
 48
0.0
 49
0.0
140
0.0
141
0.0
142
1.0
143
1.0
 70
 11940
 72
     0
 73
     1
 74
     1
  7
NETAFIM.ctb
 75
     0
147
1.114804664914665
 76
     0
 77
     2
 78
   300
148
0.0100135885398387
149
-0.0279058057208374
100
AcDbLayout
  1
Model
 70
     1
 71
     0
 10
0.0
 20
0.0
 11
12.0
 21
9.0
 12
0.0
 22
0.0
 32
0.0
 14
0.0
 24
0.0
 34
0.0
 15
0.0
 25
0.0
 35
0.0
146
0.0
 13
0.0
 23
0.0
 33
0.0
 16
1.0
 26
0.0
 36
0.0
 17
0.0
 27
1.0
 37
0.0
 76
     0
330
1F
331
94
1001
ACAD_PSEXT
1000
Adobe PDF
1000
Adobe PDF Converter
1000
My Documents\*.pdf
1000

1070
     0
  0
MATERIAL
  5
97
102
{ACAD_XDICTIONARY
360
134D
102
}
102
{ACAD_REACTORS
330
72
102
}
330
72
100
AcDbMaterial
  1
ByBlock
  0
MATERIAL
  5
96
102
{ACAD_XDICTIONARY
360
134B
102
}
102
{ACAD_REACTORS
330
72
102
}
330
72
100
AcDbMaterial
  1
ByLayer
  0
MATERIAL
  5
98
102
{ACAD_XDICTIONARY
360
110
102
}
102
{ACAD_REACTORS
330
72
102
}
330
72
100
AcDbMaterial
  1
Global
 43
0.0208000000566244
 43
0.0
 43
0.0
 43
0.0
 43
0.0
 43
0.0208000000566244
 43
0.0
 43
0.0
 43
0.0
 43
0.0
 43
1.0
 43
0.0
 43
0.0
 43
0.0
 43
0.0
 43
1.0
 49
0.0208000000566244
 49
0.0
 49
0.0
 49
0.0
 49
0.0
 49
0.0208000000566244
 49
0.0
 49
0.0
 49
0.0
 49
0.0
 49
1.0
 49
0.0
 49
0.0
 49
0.0
 49
0.0
 49
1.0
142
0.0208000000566244
142
0.0
142
0.0
142
0.0
142
0.0
142
0.0208000000566244
142
0.0
142
0.0
142
0.0
142
0.0
142
1.0
142
0.0
142
0.0
142
0.0
142
0.0
142
1.0
144
0.0208000000566244
144
0.0
144
0.0
144
0.0
144
0.0
144
0.0208000000566244
144
0.0
144
0.0
144
0.0
144
0.0
144
1.0
144
0.0
144
0.0
144
0.0
144
0.0
144
1.0
1001
ACAD
1070
    -1
1070
     3
1070
     0
1000

1071
        0
1070
     0
  0
MLEADERSTYLE
  5
813
102
{ACAD_REACTORS
330
D7
330
AA7
330
AA8
330
AA9
330
AAA
330
AAB
330
AAC
330
AAD
330
CCB
330
CCE
102
}
330
D7
100
AcDbMLeaderStyle
170
     2
171
     1
172
     0
 90
        2
 40
0.0
 41
0.0
173
     1
 91
-1056964608
340
14
 92
       -2
290
     1
 42
0.09
291
     1
 43
0.36
  3
Standard
 44
0.12
300

342
810
174
     1
178
     1
175
     1
176
     0
 93
-1056964608
 45
0.09
292
     0
297
     0
 46
0.18
 94
-1056964608
 47
1.0
 49
1.0
140
1.0
293
     1
141
0.0
294
     1
177
     0
142
1.0
295
     0
296
     0
143
0.125
1001
ACAD_MLEADERVER
1070
     2
  0
MLEADERSTYLE
  5
D8
102
{ACAD_REACTORS
330
D7
102
}
330
D7
100
AcDbMLeaderStyle
170
     2
171
     1
172
     0
 90
        2
 40
0.0
 41
0.0
173
     1
 91
-1056964608
340
14
 92
       -2
290
     1
 42
0.09
291
     1
 43
0.36
  3
Standard
 44
0.18
300

342
11
174
     1
178
     1
175
     1
176
     0
 93
-1056964608
 45
0.18
292
     0
297
     0
 46
0.18
 94
-1056964608
 47
1.0
 49
1.0
140
1.0
293
     1
141
0.0
294
     1
177
     0
142
1.0
295
     0
296
     0
143
0.125
1001
ACAD_MLEADERVER
1070
     2
  0
MLINESTYLE
  5
18
102
{ACAD_REACTORS
330
17
102
}
330
17
100
AcDbMlineStyle
  2
STANDARD
 70
     0
  3

 62
   256
 51
90.0
 52
90.0
 71
     2
 49
0.5
 62
   256
  6
BYLAYER
 49
-0.5
 62
   256
  6
BYLAYER
  0
ACDBPLACEHOLDER
  5
F
102
{ACAD_REACTORS
330
E
102
}
330
E
  0
SCALE
  5
B7
102
{ACAD_REACTORS
330
B6
102
}
330
B6
100
AcDbScale
 70
     0
300
1:1
140
1.0
141
1.0
290
     1
  0
SCALE
  5
124
102
{ACAD_REACTORS
330
B6
102
}
330
B6
100
AcDbScale
 70
     0
300
1:2
140
1.0
141
2.0
290
     0
  0
SCALE
  5
125
102
{ACAD_REACTORS
330
B6
102
}
330
B6
100
AcDbScale
 70
     0
300
1:4
140
1.0
141
4.0
290
     0
  0
SCALE
  5
126
102
{ACAD_REACTORS
330
B6
102
}
330
B6
100
AcDbScale
 70
     0
300
1:5
140
1.0
141
5.0
290
     0
  0
SCALE
  5
127
102
{ACAD_REACTORS
330
B6
102
}
330
B6
100
AcDbScale
 70
     0
300
1:8
140
1.0
141
8.0
290
     0
  0
SCALE
  5
128
102
{ACAD_REACTORS
330
B6
102
}
330
B6
100
AcDbScale
 70
     0
300
1:10
140
1.0
141
10.0
290
     0
  0
SCALE
  5
129
102
{ACAD_REACTORS
330
B6
102
}
330
B6
100
AcDbScale
 70
     0
300
1:16
140
1.0
141
16.0
290
     0
  0
SCALE
  5
12A
102
{ACAD_REACTORS
330
B6
102
}
330
B6
100
AcDbScale
 70
     0
300
1:20
140
1.0
141
20.0
290
     0
  0
SCALE
  5
12B
102
{ACAD_REACTORS
330
B6
102
}
330
B6
100
AcDbScale
 70
     0
300
1:30
140
1.0
141
30.0
290
     0
  0
SCALE
  5
12C
102
{ACAD_REACTORS
330
B6
102
}
330
B6
100
AcDbScale
 70
     0
300
1:40
140
1.0
141
40.0
290
     0
  0
SCALE
  5
12D
102
{ACAD_REACTORS
330
B6
102
}
330
B6
100
AcDbScale
 70
     0
300
1:50
140
1.0
141
50.0
290
     0
  0
SCALE
  5
12E
102
{ACAD_REACTORS
330
B6
102
}
330
B6
100
AcDbScale
 70
     0
300
1:100
140
1.0
141
100.0
290
     0
  0
SCALE
  5
12F
102
{ACAD_REACTORS
330
B6
102
}
330
B6
100
AcDbScale
 70
     0
300
2:1
140
2.0
141
1.0
290
     0
  0
SCALE
  5
130
102
{ACAD_REACTORS
330
B6
102
}
330
B6
100
AcDbScale
 70
     0
300
4:1
140
4.0
141
1.0
290
     0
  0
SCALE
  5
131
102
{ACAD_REACTORS
330
B6
102
}
330
B6
100
AcDbScale
 70
     0
300
8:1
140
8.0
141
1.0
290
     0
  0
SCALE
  5
132
102
{ACAD_REACTORS
330
B6
102
}
330
B6
100
AcDbScale
 70
     0
300
10:1
140
10.0
141
1.0
290
     0
  0
SCALE
  5
133
102
{ACAD_REACTORS
330
B6
102
}
330
B6
100
AcDbScale
 70
     0
300
100:1
140
100.0
141
1.0
290
     0
  0
SCALE
  5
134
102
{ACAD_REACTORS
330
B6
102
}
330
B6
100
AcDbScale
 70
     0
300
1/128" = 1'-0"
140
0.0078125
141
12.0
290
     0
  0
SCALE
  5
135
102
{ACAD_REACTORS
330
B6
102
}
330
B6
100
AcDbScale
 70
     0
300
1/64" = 1'-0"
140
0.015625
141
12.0
290
     0
  0
SCALE
  5
136
102
{ACAD_REACTORS
330
B6
102
}
330
B6
100
AcDbScale
 70
     0
300
1/32" = 1'-0"
140
0.03125
141
12.0
290
     0
  0
SCALE
  5
137
102
{ACAD_REACTORS
330
B6
102
}
330
B6
100
AcDbScale
 70
     0
300
1/16" = 1'-0"
140
0.0625
141
12.0
290
     0
  0
SCALE
  5
138
102
{ACAD_REACTORS
330
B6
102
}
330
B6
100
AcDbScale
 70
     0
300
3/32" = 1'-0"
140
0.09375
141
12.0
290
     0
  0
SCALE
  5
139
102
{ACAD_REACTORS
330
B6
102
}
330
B6
100
AcDbScale
 70
     0
300
1/8" = 1'-0"
140
0.125
141
12.0
290
     0
  0
SCALE
  5
13A
102
{ACAD_REACTORS
330
B6
102
}
330
B6
100
AcDbScale
 70
     0
300
3/16" = 1'-0"
140
0.1875
141
12.0
290
     0
  0
SCALE
  5
13B
102
{ACAD_REACTORS
330
B6
102
}
330
B6
100
AcDbScale
 70
     0
300
1/4" = 1'-0"
140
0.25
141
12.0
290
     0
  0
SCALE
  5
13C
102
{ACAD_REACTORS
330
B6
102
}
330
B6
100
AcDbScale
 70
     0
300
3/8" = 1'-0"
140
0.375
141
12.0
290
     0
  0
SCALE
  5
13D
102
{ACAD_REACTORS
330
B6
102
}
330
B6
100
AcDbScale
 70
     0
300
1/2" = 1'-0"
140
0.5
141
12.0
290
     0
  0
SCALE
  5
13E
102
{ACAD_REACTORS
330
B6
102
}
330
B6
100
AcDbScale
 70
     0
300
3/4" = 1'-0"
140
0.75
141
12.0
290
     0
  0
SCALE
  5
13F
102
{ACAD_REACTORS
330
B6
102
}
330
B6
100
AcDbScale
 70
     0
300
1" = 1'-0"
140
1.0
141
12.0
290
     0
  0
SCALE
  5
140
102
{ACAD_REACTORS
330
B6
102
}
330
B6
100
AcDbScale
 70
     0
300
1-1/2" = 1'-0"
140
1.5
141
12.0
290
     0
  0
SCALE
  5
141
102
{ACAD_REACTORS
330
B6
102
}
330
B6
100
AcDbScale
 70
     0
300
3" = 1'-0"
140
3.0
141
12.0
290
     0
  0
SCALE
  5
142
102
{ACAD_REACTORS
330
B6
102
}
330
B6
100
AcDbScale
 70
     0
300
6" = 1'-0"
140
6.0
141
12.0
290
     0
  0
SCALE
  5
143
102
{ACAD_REACTORS
330
B6
102
}
330
B6
100
AcDbScale
 70
     0
300
1'-0" = 1'-0"
140
12.0
141
12.0
290
     0
  0
TABLESTYLE
  5
181
102
{ACAD_XDICTIONARY
360
129D
102
}
102
{ACAD_REACTORS
330
86
102
}
330
86
100
AcDbTableStyle
  3

 70
     0
 71
     3
 40
0.06
 41
0.06
280
     0
281
     0
  7
Legend
140
0.4
170
     4
 62
     0
 63
     7
283
     0
274
    -2
284
     0
 64
     0
275
    -2
285
     0
 65
     0
276
    -2
286
     0
 66
     0
277
    -2
287
     0
 67
     0
278
    -2
288
     0
 68
     0
279
    -2
289
     0
 69
     0
  7
Legend
140
0.5
170
     5
 62
     0
 63
     7
283
     0
274
    -2
284
     0
 64
     0
275
    -2
285
     0
 65
     0
276
    -2
286
     0
 66
     0
277
    -2
287
     0
 67
     0
278
    -2
288
     0
 68
     0
279
    -2
289
     0
 69
     0
  7
Legend
140
0.4
170
     4
 62
     0
 63
     7
283
     0
274
    -2
284
     0
 64
     0
275
    -2
285
     0
 65
     0
276
    -2
286
     0
 66
     0
277
    -2
287
     0
 67
     0
278
    -2
288
     0
 68
     0
279
    -2
289
     0
 69
     0
  0
TABLESTYLE
  5
87
102
{ACAD_XDICTIONARY
360
104
102
}
102
{ACAD_REACTORS
330
86
102
}
330
86
100
AcDbTableStyle
  3
Standard
 70
     0
 71
     0
 40
0.06
 41
0.06
280
     0
281
     0
  7
Standard
140
0.18
170
     2
 62
     0
 63
     7
283
     0
274
    -2
284
     1
 64
     0
275
    -2
285
     1
 65
     0
276
    -2
286
     1
 66
     0
277
    -2
287
     1
 67
     0
278
    -2
288
     1
 68
     0
279
    -2
289
     1
 69
     0
  7
Standard
140
0.25
170
     5
 62
     0
 63
     7
283
     0
274
    -2
284
     1
 64
     0
275
    -2
285
     1
 65
     0
276
    -2
286
     1
 66
     0
277
    -2
287
     1
 67
     0
278
    -2
288
     1
 68
     0
279
    -2
289
     1
 69
     0
  7
Standard
140
0.18
170
     5
 62
     0
 63
     7
283
     0
274
    -2
284
     1
 64
     0
275
    -2
285
     1
 65
     0
276
    -2
286
     1
 66
     0
277
    -2
287
     1
 67
     0
278
    -2
288
     1
 68
     0
279
    -2
289
     1
 69
     0
  0
VISUALSTYLE
  5
9F
102
{ACAD_XDICTIONARY
360
135A
102
}
102
{ACAD_REACTORS
330
99
102
}
330
99
100
AcDbVisualStyle
  2
2dWireframe
 70
     4
 71
     0
 72
     2
 73
     1
 90
        0
 40
-0.6
 41
-30.0
 62
     5
 63
     7
421
 16777215
 74
     1
 91
        4
 64
     7
 65
   257
 75
     1
175
     1
 42
1.0
 92
        0
 66
   257
 43
1.0
 76
     1
 77
     6
 78
     2
 67
     7
 79
     5
170
     0
171
     0
290
     0
174
     0
 93
        1
 44
0.0
173
     0
291
     0
 45
0.0
1001
ACAD
1000
AcDbSavedByObjectVersion
1070
     0
  0
VISUALSTYLE
  5
A1
102
{ACAD_XDICTIONARY
360
135E
102
}
102
{ACAD_REACTORS
330
99
102
}
330
99
100
AcDbVisualStyle
  2
3D Hidden
 70
     6
 71
     1
 72
     2
 73
     2
 90
        0
 40
-0.6
 41
-30.0
 62
     5
 63
     7
421
 16777215
 74
     2
 91
        2
 64
     7
 65
   257
 75
     2
175
     1
 42
40.0
 92
        0
 66
   257
 43
1.0
 76
     1
 77
     6
 78
     2
 67
     7
 79
     3
170
     0
171
     0
290
     0
174
     0
 93
        1
 44
0.0
173
     0
291
     0
 45
0.0
1001
ACAD
1000
AcDbSavedByObjectVersion
1070
     0
  0
VISUALSTYLE
  5
A0
102
{ACAD_XDICTIONARY
360
135C
102
}
102
{ACAD_REACTORS
330
99
102
}
330
99
100
AcDbVisualStyle
  2
3dWireframe
 70
     5
 71
     0
 72
     2
 73
     1
 90
        0
 40
-0.6
 41
-30.0
 62
     5
 63
     7
421
 16777215
 74
     1
 91
        4
 64
     7
 65
   257
 75
     1
175
     1
 42
1.0
 92
        0
 66
   257
 43
1.0
 76
     1
 77
     6
 78
     2
 67
     7
 79
     5
170
     0
171
     0
290
     0
174
     0
 93
        1
 44
0.0
173
     0
291
     0
 45
0.0
1001
ACAD
1000
AcDbSavedByObjectVersion
1070
     0
  0
VISUALSTYLE
  5
9E
102
{ACAD_XDICTIONARY
360
1358
102
}
102
{ACAD_REACTORS
330
99
102
}
330
99
100
AcDbVisualStyle
  2
Basic
 70
     7
 71
     1
 72
     0
 73
     1
 90
        0
 40
-0.6
 41
-30.0
 62
     5
 63
     7
421
 16777215
 74
     0
 91
        4
 64
     7
 65
   257
 75
     1
175
     1
 42
1.0
 92
        8
 66
     7
 43
1.0
 76
     1
 77
     6
 78
     2
 67
     7
 79
     5
170
     0
171
     0
290
     0
174
     0
 93
        1
 44
0.0
173
     0
291
     1
 45
0.0
1001
ACAD
1000
AcDbSavedByObjectVersion
1070
     0
  0
VISUALSTYLE
  5
A5
102
{ACAD_XDICTIONARY
360
1366
102
}
102
{ACAD_REACTORS
330
99
102
}
330
99
100
AcDbVisualStyle
  2
Brighten
 70
    12
 71
     2
 72
     2
 73
     1
 90
        0
 40
-0.6
 41
-30.0
 62
     5
 63
     7
421
 16777215
 74
     1
 91
        4
 64
     7
 65
   257
 75
     1
175
     1
 42
1.0
 92
        8
 66
     7
 43
1.0
 76
     1
 77
     6
 78
     2
 67
     7
 79
     5
170
     0
171
     0
290
     0
174
     0
 93
        1
 44
50.0
173
     0
291
     1
 45
0.0
1001
ACAD
1000
AcDbSavedByObjectVersion
1070
     0
  0
VISUALSTYLE
  5
A9
102
{ACAD_XDICTIONARY
360
136E
102
}
102
{ACAD_REACTORS
330
99
102
}
330
99
100
AcDbVisualStyle
  2
ColorChange
 70
    16
 71
     2
 72
     2
 73
     3
 90
        0
 40
-0.6
 41
-30.0
 62
     5
 63
     8
421
  8421504
 74
     1
 91
        4
 64
     7
 65
   257
 75
     1
175
     1
 42
1.0
 92
        8
 66
     8
424
  8421504
 43
1.0
 76
     1
 77
     6
 78
     2
 67
     7
 79
     5
170
     0
171
     0
290
     0
174
     0
 93
        1
 44
0.0
173
     0
291
     1
 45
0.0
1001
ACAD
1000
AcDbSavedByObjectVersion
1070
     0
  0
VISUALSTYLE
  5
A2
102
{ACAD_XDICTIONARY
360
1360
102
}
102
{ACAD_REACTORS
330
99
102
}
330
99
100
AcDbVisualStyle
  2
Conceptual
 70
     9
 71
     3
 72
     2
 73
     1
 90
        0
 40
-0.6
 41
-30.0
 62
     5
 63
     7
421
 16777215
 74
     2
 91
        2
 64
     7
 65
   257
 75
     1
175
     1
 42
40.0
 92
        8
 66
     7
 43
1.0
 76
     1
 77
     6
 78
     2
 67
     7
 79
     3
170
     0
171
     0
290
     0
174
     0
 93
        1
 44
0.0
173
     0
291
     0
 45
0.0
1001
ACAD
1000
AcDbSavedByObjectVersion
1070
     0
  0
VISUALSTYLE
  5
A4
102
{ACAD_XDICTIONARY
360
1364
102
}
102
{ACAD_REACTORS
330
99
102
}
330
99
100
AcDbVisualStyle
  2
Dim
 70
    11
 71
     2
 72
     2
 73
     1
 90
        0
 40
-0.6
 41
-30.0
 62
     5
 63
     7
421
 16777215
 74
     1
 91
        4
 64
     7
 65
   257
 75
     1
175
     1
 42
1.0
 92
        8
 66
     7
 43
1.0
 76
     1
 77
     6
 78
     2
 67
     7
 79
     5
170
     0
171
     0
290
     0
174
     0
 93
        1
 44
-50.0
173
     0
291
     1
 45
0.0
1001
ACAD
1000
AcDbSavedByObjectVersion
1070
     0
  0
VISUALSTYLE
  5
175
102
{ACAD_XDICTIONARY
360
1374
102
}
102
{ACAD_REACTORS
330
99
102
}
330
99
100
AcDbVisualStyle
  2
EdgeColorOff
 70
    22
 71
     2
 72
     2
 73
     0
 90
        0
 40
-0.6
 41
-30.0
 62
     5
 63
     7
421
 16777215
 74
     1
 91
        4
 64
     7
 65
   257
 75
     1
175
     1
 42
1.0
 92
        8
 66
     7
 43
1.0
 76
     1
 77
     6
 78
     2
 67
     7
 79
     5
170
     0
171
     0
290
     0
174
     0
 93
        1
 44
0.0
173
     0
291
     1
 45
0.0
1001
ACAD
1000
AcDbSavedByObjectVersion
1070
     0
  0
VISUALSTYLE
  5
A8
102
{ACAD_XDICTIONARY
360
136C
102
}
102
{ACAD_REACTORS
330
99
102
}
330
99
100
AcDbVisualStyle
  2
Facepattern
 70
    15
 71
     2
 72
     2
 73
     1
 90
        0
 40
-0.6
 41
-30.0
 62
     5
 63
     7
421
 16777215
 74
     1
 91
        4
 64
     7
 65
   257
 75
     1
175
     1
 42
1.0
 92
        8
 66
     7
 43
1.0
 76
     1
 77
     6
 78
     2
 67
     7
 79
     5
170
     0
171
     0
290
     0
174
     0
 93
        1
 44
0.0
173
     0
291
     1
 45
0.0
1001
ACAD
1000
AcDbSavedByObjectVersion
1070
     0
  0
VISUALSTYLE
  5
9A
102
{ACAD_XDICTIONARY
360
1350
102
}
102
{ACAD_REACTORS
330
99
102
}
330
99
100
AcDbVisualStyle
  2
Flat
 70
     0
 71
     2
 72
     1
 73
     1
 90
        2
 40
-0.6
 41
30.0
 62
     5
 63
     7
421
 16777215
 74
     0
 91
        4
 64
     7
 65
   257
 75
     1
175
     1
 42
1.0
 92
        8
 66
     7
 43
1.0
 76
     1
 77
     6
 78
     2
 67
     7
 79
     5
170
     0
171
     0
290
     0
174
     0
 93
        1
 44
0.0
173
     0
291
     1
 45
0.0
1001
ACAD
1000
AcDbSavedByObjectVersion
1070
     0
  0
VISUALSTYLE
  5
9B
102
{ACAD_XDICTIONARY
360
1352
102
}
102
{ACAD_REACTORS
330
99
102
}
330
99
100
AcDbVisualStyle
  2
FlatWithEdges
 70
     1
 71
     2
 72
     1
 73
     1
 90
        2
 40
-0.6
 41
30.0
 62
     5
 63
     7
421
 16777215
 74
     1
 91
        4
 64
     7
 65
   257
 75
     1
175
     1
 42
1.0
 92
        0
 66
   257
 43
1.0
 76
     1
 77
     6
 78
     2
 67
     7
 79
     5
170
     0
171
     0
290
     0
174
     0
 93
        1
 44
0.0
173
     0
291
     1
 45
0.0
1001
ACAD
1000
AcDbSavedByObjectVersion
1070
     0
  0
VISUALSTYLE
  5
9C
102
{ACAD_XDICTIONARY
360
1354
102
}
102
{ACAD_REACTORS
330
99
102
}
330
99
100
AcDbVisualStyle
  2
Gouraud
 70
     2
 71
     2
 72
     2
 73
     1
 90
        2
 40
-0.6
 41
30.0
 62
     5
 63
     7
421
 16777215
 74
     0
 91
        4
 64
     7
 65
   257
 75
     1
175
     1
 42
1.0
 92
        0
 66
     7
 43
1.0
 76
     1
 77
     6
 78
     2
 67
     7
 79
     5
170
     0
171
     0
290
     0
174
     0
 93
        1
 44
0.0
173
     0
291
     1
 45
0.0
1001
ACAD
1000
AcDbSavedByObjectVersion
1070
     0
  0
VISUALSTYLE
  5
9D
102
{ACAD_XDICTIONARY
360
1356
102
}
102
{ACAD_REACTORS
330
99
102
}
330
99
100
AcDbVisualStyle
  2
GouraudWithEdges
 70
     3
 71
     2
 72
     2
 73
     1
 90
        2
 40
-0.6
 41
30.0
 62
     5
 63
     7
421
 16777215
 74
     1
 91
        4
 64
     7
 65
   257
 75
     1
175
     1
 42
1.0
 92
        0
 66
   257
 43
1.0
 76
     1
 77
     6
 78
     2
 67
     7
 79
     5
170
     0
171
     0
290
     0
174
     0
 93
        1
 44
0.0
173
     0
291
     1
 45
0.0
1001
ACAD
1000
AcDbSavedByObjectVersion
1070
     0
  0
VISUALSTYLE
  5
1AE
102
{ACAD_XDICTIONARY
360
1AF
102
}
102
{ACAD_REACTORS
330
99
102
}
330
99
100
AcDbVisualStyle
  2
Hidden
 70
     6
 71
     1
 72
     2
 73
     2
 90
        0
 40
-0.6
 41
-30.0
 62
     5
 63
     7
421
 16777215
 74
     2
 91
        2
 64
     7
 65
   257
 75
     2
175
     1
 42
40.0
 92
        0
 66
   257
 43
1.0
 76
     1
 77
     6
 78
     2
 67
     7
 79
     3
170
     0
171
     0
290
     0
174
     0
 93
        1
 44
0.0
173
     0
291
     0
 45
0.0
1001
ACAD
1000
AcDbSavedByObjectVersion
1070
     0
  0
VISUALSTYLE
  5
173
102
{ACAD_XDICTIONARY
360
1370
102
}
102
{ACAD_REACTORS
330
99
102
}
330
99
100
AcDbVisualStyle
  2
JitterOff
 70
    20
 71
     2
 72
     2
 73
     0
 90
        0
 40
-0.6
 41
-30.0
 62
     5
 63
     7
421
 16777215
 74
     1
 91
        4
 64
     7
 65
   257
 75
     1
175
     1
 42
1.0
 92
       10
 66
     7
 43
1.0
 76
     1
 77
     6
 78
     2
 67
     7
 79
     5
170
     0
171
     0
290
     0
174
     0
 93
        1
 44
0.0
173
     0
291
     1
 45
0.0
1001
ACAD
1000
AcDbSavedByObjectVersion
1070
     0
  0
VISUALSTYLE
  5
A7
102
{ACAD_XDICTIONARY
360
136A
102
}
102
{ACAD_REACTORS
330
99
102
}
330
99
100
AcDbVisualStyle
  2
Linepattern
 70
    14
 71
     2
 72
     2
 73
     1
 90
        0
 40
-0.6
 41
-30.0
 62
     5
 63
     7
421
 16777215
 74
     1
 91
        4
 64
     7
 65
   257
 75
     7
175
     7
 42
1.0
 92
        8
 66
     7
 43
1.0
 76
     1
 77
     6
 78
     2
 67
     7
 79
     5
170
     0
171
     0
290
     0
174
     0
 93
        1
 44
0.0
173
     0
291
     1
 45
0.0
1001
ACAD
1000
AcDbSavedByObjectVersion
1070
     0
  0
VISUALSTYLE
  5
174
102
{ACAD_XDICTIONARY
360
1372
102
}
102
{ACAD_REACTORS
330
99
102
}
330
99
100
AcDbVisualStyle
  2
OverhangOff
 70
    21
 71
     2
 72
     2
 73
     0
 90
        0
 40
-0.6
 41
-30.0
 62
     5
 63
     7
421
 16777215
 74
     1
 91
        4
 64
     7
 65
   257
 75
     1
175
     1
 42
1.0
 92
        9
 66
     7
 43
1.0
 76
     1
 77
     6
 78
     2
 67
     7
 79
     5
170
     0
171
     0
290
     0
174
     0
 93
        1
 44
0.0
173
     0
291
     1
 45
0.0
1001
ACAD
1000
AcDbSavedByObjectVersion
1070
     0
  0
VISUALSTYLE
  5
A3
102
{ACAD_XDICTIONARY
360
1362
102
}
102
{ACAD_REACTORS
330
99
102
}
330
99
100
AcDbVisualStyle
  2
Realistic
 70
     8
 71
     2
 72
     2
 73
     1
 90
        0
 40
-0.6
 41
-30.0
 62
     5
 63
     7
421
 16777215
 74
     1
 91
        0
 64
     7
 65
   257
 75
     1
175
     1
 42
1.0
 92
        8
 66
     8
424
  7895160
 43
1.0
 76
     1
 77
     6
 78
     2
 67
     7
 79
     5
170
     0
171
     0
290
     0
174
     0
 93
       13
 44
0.0
173
     0
291
     0
 45
0.0
1001
ACAD
1000
AcDbSavedByObjectVersion
1070
     0
  0
VISUALSTYLE
  5
1B1
102
{ACAD_XDICTIONARY
360
1B2
102
}
102
{ACAD_REACTORS
330
99
102
}
330
99
100
AcDbVisualStyle
  2
Shaded
 70
    27
 71
     2
 72
     2
 73
     1
 90
        2
 40
-0.6
 41
30.0
 62
     5
 63
     7
421
 16777215
 74
     0
 91
        4
 64
     7
 65
   257
 75
     1
175
     1
 42
1.0
 92
        8
 66
   257
 43
1.0
 76
     1
 77
     6
 78
     2
 67
     8
425
  7895160
 79
     3
170
     0
171
     0
290
     0
174
     0
 93
        5
 44
0.0
173
     0
291
     0
 45
0.0
1001
ACAD
1000
AcDbSavedByObjectVersion
1070
     0
  0
VISUALSTYLE
  5
1B4
102
{ACAD_XDICTIONARY
360
1B5
102
}
102
{ACAD_REACTORS
330
99
102
}
330
99
100
AcDbVisualStyle
  2
Shaded with edges
 70
    26
 71
     2
 72
     2
 73
     1
 90
        2
 40
-0.6
 41
30.0
 62
     5
 63
     7
421
 16777215
 74
     1
 91
       10
 64
     7
 65
   257
 75
     2
175
     1
 42
1.0
 92
        8
 66
   257
 43
1.0
 76
     1
 77
     6
 78
     2
 67
     7
 79
     3
170
     0
171
     0
290
     0
174
     0
 93
        5
 44
0.0
173
     0
291
     0
 45
0.0
1001
ACAD
1000
AcDbSavedByObjectVersion
1070
     0
  0
VISUALSTYLE
  5
1B7
102
{ACAD_XDICTIONARY
360
1B8
102
}
102
{ACAD_REACTORS
330
99
102
}
330
99
100
AcDbVisualStyle
  2
Shades of Gray
 70
    23
 71
     2
 72
     2
 73
     3
 90
        0
 40
-0.6
 41
-30.0
 62
     5
 63
     7
421
 16777215
 74
     2
 91
        2
 64
     7
 65
     7
 75
     1
175
     1
 42
40.0
 92
        8
 66
     7
 43
1.0
 76
     1
 77
     6
 78
     2
 67
     7
 79
     3
170
     0
171
     0
290
     0
174
     0
 93
        1
 44
0.0
173
     0
291
     0
 45
0.0
1001
ACAD
1000
AcDbSavedByObjectVersion
1070
     0
  0
VISUALSTYLE
  5
1BA
102
{ACAD_XDICTIONARY
360
1BB
102
}
102
{ACAD_REACTORS
330
99
102
}
330
99
100
AcDbVisualStyle
  2
Sketchy
 70
    24
 71
     1
 72
     2
 73
     2
 90
        0
 40
-0.6
 41
-30.0
 62
     5
 63
     7
421
 16777215
 74
     2
 91
        2
 64
     7
 65
     7
 75
     1
175
     1
 42
40.0
 92
       11
 66
     7
 43
1.0
 76
     1
 77
     6
 78
     2
 67
     7
 79
     6
170
     0
171
     0
290
     0
174
     0
 93
        1
 44
0.0
173
     0
291
     0
 45
0.0
1001
ACAD
1000
AcDbSavedByObjectVersion
1070
     0
  0
VISUALSTYLE
  5
A6
102
{ACAD_XDICTIONARY
360
1368
102
}
102
{ACAD_REACTORS
330
99
102
}
330
99
100
AcDbVisualStyle
  2
Thicken
 70
    13
 71
     2
 72
     2
 73
     1
 90
        0
 40
-0.6
 41
-30.0
 62
     5
 63
     7
421
 16777215
 74
     1
 91
        4
 64
     7
 65
   257
 75
     1
175
     1
 42
1.0
 92
       12
 66
     7
 43
1.0
 76
     1
 77
     6
 78
     2
 67
     7
 79
     5
170
     0
171
     0
290
     0
174
     0
 93
        1
 44
0.0
173
     0
291
     1
 45
0.0
1001
ACAD
1000
AcDbSavedByObjectVersion
1070
     0
  0
VISUALSTYLE
  5
1BD
102
{ACAD_XDICTIONARY
360
1BE
102
}
102
{ACAD_REACTORS
330
99
102
}
330
99
100
AcDbVisualStyle
  2
Wireframe
 70
     5
 71
     0
 72
     2
 73
     0
 90
        0
 40
-0.6
 41
-30.0
 62
     5
 63
     7
421
 16777215
 74
     1
 91
        4
 64
     7
 65
   257
 75
     1
175
     1
 42
1.0
 92
        0
 66
   257
 43
1.0
 76
     1
 77
     6
 78
     2
 67
     7
 79
     3
170
     0
171
     0
290
     0
174
     0
 93
        1
 44
0.0
173
     0
291
     0
 45
0.0
1001
ACAD
1000
AcDbSavedByObjectVersion
1070
     0
  0
VISUALSTYLE
  5
1C0
102
{ACAD_XDICTIONARY
360
1C1
102
}
102
{ACAD_REACTORS
330
99
102
}
330
99
100
AcDbVisualStyle
  2
X-Ray
 70
    25
 71
     2
 72
     2
 73
     1
 90
        1
 40
0.5
 41
-30.0
 62
     5
 63
     7
421
 16777215
 74
     1
 91
        0
 64
     7
 65
   257
 75
     1
175
     1
 42
1.0
 92
        8
 66
     7
 43
1.0
 76
     1
 77
     6
 78
     2
 67
     7
 79
     3
170
     0
171
     0
290
     0
174
     0
 93
       13
 44
0.0
173
     0
291
     0
 45
0.0
1001
ACAD
1000
AcDbSavedByObjectVersion
1070
     0
  0
DICTIONARYVAR
  5
F0
102
{ACAD_REACTORS
330
66
102
}
330
66
100
DictionaryVariables
280
     0
  1
1:1
  0
DICTIONARYVAR
  5
EF
102
{ACAD_REACTORS
330
66
102
}
330
66
100
DictionaryVariables
280
     0
  1
STANDARD
  0
DICTIONARYVAR
  5
89
102
{ACAD_REACTORS
330
66
102
}
330
66
100
DictionaryVariables
280
     0
  1
STANDARD
  0
DICTIONARYVAR
  5
67
102
{ACAD_REACTORS
330
66
102
}
330
66
100
DictionaryVariables
280
     0
  1
2
  0
DICTIONARYVAR
  5
6B
102
{ACAD_REACTORS
330
66
102
}
330
66
100
DictionaryVariables
280
     0
  1
1
  0
DICTIONARYVAR
  5
14D
102
{ACAD_REACTORS
330
66
102
}
330
66
100
DictionaryVariables
280
     0
  1
0
  0
DICTIONARYVAR
  5
14E
102
{ACAD_REACTORS
330
66
102
}
330
66
100
DictionaryVariables
280
     0
  1
0
  0
DICTIONARYVAR
  5
6D8
102
{ACAD_REACTORS
330
66
102
}
330
66
100
DictionaryVariables
280
     0
  1
0
  0
DICTIONARYVAR
  5
12CF
102
{ACAD_REACTORS
330
66
102
}
330
66
100
DictionaryVariables
280
     0
  1
1
  0
DICTIONARYVAR
  5
12D0
102
{ACAD_REACTORS
330
66
102
}
330
66
100
DictionaryVariables
280
     0
  1
100.000000
  0
DICTIONARYVAR
  5
12DD
102
{ACAD_REACTORS
330
66
102
}
330
66
100
DictionaryVariables
280
     0
  1
2
  0
XRECORD
  5
133F
102
{ACAD_REACTORS
330
18F
102
}
330
18F
100
AcDbXrecord
280
     1
1000
ADE02C001
1070
     1
1070
     0
1002
{
1002
}
1002
{
1002
}
1002
{
1002
}
1000

  0
XRECORD
  5
1FB
102
{ACAD_REACTORS
330
1FA
102
}
330
1FA
100
AcDbXrecord
280
     1
330
0
  0
DMSTYLIZEDENTITIESTABLE
  5
189
102
{ACAD_REACTORS
330
179
102
}
330
179
100
AcMapDMStylizedEntitiesTable
 70
     1
  0
DICTIONARY
  5
18A
102
{ACAD_REACTORS
330
179
102
}
330
179
100
AcDbDictionary
280
     1
281
     1
  0
DATATABLE
  5
17D
102
{ACAD_REACTORS
330
179
102
}
330
179
100
AcDbDataTable
 70
     2
 90
        4
 91
       15
  1

 92
        3
  2
OriginalClassName
  3
AcMapDMDefaultStyle
  3
AcMapDMEntityStyle
  3
AcMapDMRasterStyle
  3
AcMapDMSEAnnotationStyle
  3
AcMapDMSEHatchStyle
  3
AcMapDMSETextStyle
  3
AcMapDMThematicStyle
  3
AcMapDMBaseElement
  3
AcMapDMAttachedDwgsQueryElement
  3
AcMapDMFeatureElement
  3
AcMapDMLayerElement
  3
AcMapDMCurrentDwgQueryElement
  3
AcMapDMRasterElement
  3
AcMapDMTopoElement
  3
AcMapDMTopoQueryElement
 92
        3
  2
ProxyDisplayName
  3
Default
  3
Entity
  3
Raster
  3
Annotation
  3
Hatch
  3
Text
  3
Thematic
  3
Map Base
  3
Ade Query
  3
Feature Class
  3
Layer
  3
Ade Project Query
  3
Raster
  3
Topology
  3
Topology Query
 92
        1
  2
CustomObjectType
 93
        2
 93
        2
 93
        2
 93
        2
 93
        2
 93
        2
 93
        2
 93
        1
 93
        1
 93
        1
 93
        1
 93
        1
 93
        1
 93
        1
 93
        1
 92
        1
  2
StyleCoExistanceType
 93
        1
 93
        1
 93
        1
 93
        1
 93
        1
 93
        1
 93
        2
 93
        0
 93
        0
 93
        0
 93
        0
 93
        0
 93
        0
 93
        0
 93
        0
  0
DMMAPMANAGER
  5
17A
102
{ACAD_REACTORS
330
179
102
}
330
179
100
AcDbDictionary
281
     1
  3
DisplayMap1
350
17F
100
AcDbDictionaryWithDefault
340
17F
100
AcMapDMMapManager
 70
     1
340
17F
  0
DMSTYLELIBRARY
  5
17B
102
{ACAD_REACTORS
330
179
102
}
330
179
100
AcMapDMStyleLibrary
 70
     1
 70
     1
360
17C
  0
DICTIONARY
  5
17E
102
{ACAD_REACTORS
330
179
102
}
330
179
100
AcDbDictionary
281
     1
  0
XRECORD
  5
CBC
102
{ACAD_XDICTIONARY
360
CBD
102
}
102
{ACAD_REACTORS
330
20D
102
}
330
20D
100
AcDbXrecord
280
     1
 91
     1023
301

290
     0
302
NETAFIM-L-DETL-TEXT-LEADER-035M
330
0
 90
        8
 62
     1
370
    -3
331
16
  1
Color_1
330
80E
 90
        8
 62
     2
370
    -3
331
16
  1
Color_2
330
0
 90
        8
 62
   123
370
    -3
331
16
  1
Color_123
330
0
 90
        8
 62
    25
370
    -3
331
16
  1
Color_25
330
0
 90
        8
 62
   123
370
    -3
331
1F2
  1
Color_123
330
0
 90
        8
 62
    11
370
    -3
331
16
  1
Color_11
330
0
 90
        8
 62
     5
370
    -3
331
16
  1
Color_5
330
807
 90
        8
 62
     8
370
    -3
331
16
  1
Color_8
330
805
 90
        0
 62
   211
370
    -3
331
16
  1
Color_211
330
803
 90
        8
 62
     5
370
    -3
331
16
  1
Color_5
330
801
 90
        8
 62
     1
370
    -3
331
16
  1
Color_1
330
800
 90
        8
 62
   111
370
    -3
331
16
  1
Color_111
330
0
 90
        8
 62
    32
370
    -3
331
0
  1
Color_32
330
0
 90
        8
 62
   191
370
    -3
331
16
  1
Color_191
330
0
 90
        8
 62
     8
370
    -3
331
16
  1
Color_8
330
0
 90
        8
 62
    15
370
    -3
331
16
  1
Color_15
330
0
 90
        8
 62
    74
370
    -3
331
16
  1
Color_74
330
0
 90
        8
 62
    40
370
    -3
331
16
  1
Color_40
330
0
 90
        8
 62
    30
370
    -3
331
1E8
  1
Color_30
330
0
 90
        8
 62
     6
370
    -3
331
16
  1
Color_6
330
0
 90
        8
 62
   191
370
    -3
331
0
  1
Color_191
330
0
 90
        8
 62
     4
370
    -3
331
0
  1
Color_4
330
0
 90
        8
 62
     3
370
    -3
331
0
  1
Color_3
330
0
 90
        8
 62
   150
370
    -3
331
0
  1
Color_150
330
0
 90
        8
 62
     1
370
    -3
331
16
  1
Color_1
330
0
 90
        0
 62
   211
370
    -3
331
16
  1
Color_211
330
0
 90
        0
 62
   211
370
    -3
331
16
  1
Color_211
330
0
 90
        8
 62
     6
370
    -3
331
16
  1
Color_6
330
0
 90
        8
 62
   123
370
    -3
331
16
  1
Color_123
330
0
 90
        8
 62
    15
370
    -3
331
16
  1
Color_15
330
0
 90
        8
 62
   123
370
    -3
331
1F2
  1
Color_123
330
0
 90
        8
 62
    11
370
    -3
331
16
  1
Color_11
330
0
 90
        8
 62
     5
370
    -3
331
16
  1
Color_5
330
1EC
 90
        8
 62
     1
370
    -3
331
16
  1
Color_1
330
0
 90
        8
 62
     8
370
    -3
331
16
  1
Color_8
330
0
 90
        0
 62
   211
370
    -3
331
16
  1
Color_211
330
0
 90
        8
 62
   123
370
    -3
331
16
  1
Color_123
330
0
 90
        8
 62
     5
370
    -3
331
16
  1
Color_5
330
0
 90
        8
 62
     1
370
    -3
331
16
  1
Color_1
330
0
 90
        0
 62
   111
370
    -3
331
16
  1
Color_111
330
10
 90
        8
 62
     7
370
    -3
331
16
  1
Color_7
  0
DICTIONARY
  5
74D
330
22
100
AcDbDictionary
280
     1
281
     1
  3
ADSK_XREC_LAYOUTTHUMBNAIL
360
74E
  0
DICTIONARY
  5
134D
330
97
100
AcDbDictionary
280
     1
281
     1
  3
ACAD_XREC_ROUNDTRIP
360
134E
  0
DICTIONARY
  5
134B
330
96
100
AcDbDictionary
280
     1
281
     1
  3
ACAD_XREC_ROUNDTRIP
360
134C
  0
DICTIONARY
  5
110
330
98
100
AcDbDictionary
280
     1
281
     1
  3
ACAD_XREC_ROUNDTRIP
360
134F
  3
BUMPTILE
360
112
  3
DIFFUSETILE
360
111
  3
OPACITYTILE
360
113
  3
REFLECTIONTILE
360
114
  0
DICTIONARY
  5
129D
330
181
100
AcDbDictionary
280
     1
281
     1
  3
ACAD_ROUNDTRIP_2008_TABLESTYLE_CELLSTYLEMAP
360
1348
  3
ACAD_XREC_ROUNDTRIP
360
1376
  0
DICTIONARY
  5
104
330
87
100
AcDbDictionary
280
     1
281
     1
  3
ACAD_ROUNDTRIP_2008_TABLESTYLE_CELLSTYLEMAP
360
1347
  3
ACAD_XREC_ROUNDTRIP
360
134A
  0
DICTIONARY
  5
135A
330
9F
100
AcDbDictionary
280
     1
281
     1
  3
ACAD_XREC_ROUNDTRIP
360
135B
  0
DICTIONARY
  5
135E
330
A1
100
AcDbDictionary
280
     1
281
     1
  3
ACAD_XREC_ROUNDTRIP
360
135F
  0
DICTIONARY
  5
135C
330
A0
100
AcDbDictionary
280
     1
281
     1
  3
ACAD_XREC_ROUNDTRIP
360
135D
  0
DICTIONARY
  5
1358
330
9E
100
AcDbDictionary
280
     1
281
     1
  3
ACAD_XREC_ROUNDTRIP
360
1359
  0
DICTIONARY
  5
1366
330
A5
100
AcDbDictionary
280
     1
281
     1
  3
ACAD_XREC_ROUNDTRIP
360
1367
  0
DICTIONARY
  5
136E
330
A9
100
AcDbDictionary
280
     1
281
     1
  3
ACAD_XREC_ROUNDTRIP
360
136F
  0
DICTIONARY
  5
1360
330
A2
100
AcDbDictionary
280
     1
281
     1
  3
ACAD_XREC_ROUNDTRIP
360
1361
  0
DICTIONARY
  5
1364
330
A4
100
AcDbDictionary
280
     1
281
     1
  3
ACAD_XREC_ROUNDTRIP
360
1365
  0
DICTIONARY
  5
1374
330
175
100
AcDbDictionary
280
     1
281
     1
  3
ACAD_XREC_ROUNDTRIP
360
1375
  0
DICTIONARY
  5
136C
330
A8
100
AcDbDictionary
280
     1
281
     1
  3
ACAD_XREC_ROUNDTRIP
360
136D
  0
DICTIONARY
  5
1350
330
9A
100
AcDbDictionary
280
     1
281
     1
  3
ACAD_XREC_ROUNDTRIP
360
1351
  0
DICTIONARY
  5
1352
330
9B
100
AcDbDictionary
280
     1
281
     1
  3
ACAD_XREC_ROUNDTRIP
360
1353
  0
DICTIONARY
  5
1354
330
9C
100
AcDbDictionary
280
     1
281
     1
  3
ACAD_XREC_ROUNDTRIP
360
1355
  0
DICTIONARY
  5
1356
330
9D
100
AcDbDictionary
280
     1
281
     1
  3
ACAD_XREC_ROUNDTRIP
360
1357
  0
DICTIONARY
  5
1AF
330
1AE
100
AcDbDictionary
280
     1
281
     1
  3
ACAD_XREC_ROUNDTRIP
360
1B0
  0
DICTIONARY
  5
1370
330
173
100
AcDbDictionary
280
     1
281
     1
  3
ACAD_XREC_ROUNDTRIP
360
1371
  0
DICTIONARY
  5
136A
330
A7
100
AcDbDictionary
280
     1
281
     1
  3
ACAD_XREC_ROUNDTRIP
360
136B
  0
DICTIONARY
  5
1372
330
174
100
AcDbDictionary
280
     1
281
     1
  3
ACAD_XREC_ROUNDTRIP
360
1373
  0
DICTIONARY
  5
1362
330
A3
100
AcDbDictionary
280
     1
281
     1
  3
ACAD_XREC_ROUNDTRIP
360
1363
  0
DICTIONARY
  5
1B2
330
1B1
100
AcDbDictionary
280
     1
281
     1
  3
ACAD_XREC_ROUNDTRIP
360
1B3
  0
DICTIONARY
  5
1B5
330
1B4
100
AcDbDictionary
280
     1
281
     1
  3
ACAD_XREC_ROUNDTRIP
360
1B6
  0
DICTIONARY
  5
1B8
330
1B7
100
AcDbDictionary
280
     1
281
     1
  3
ACAD_XREC_ROUNDTRIP
360
1B9
  0
DICTIONARY
  5
1BB
330
1BA
100
AcDbDictionary
280
     1
281
     1
  3
ACAD_XREC_ROUNDTRIP
360
1BC
  0
DICTIONARY
  5
1368
330
A6
100
AcDbDictionary
280
     1
281
     1
  3
ACAD_XREC_ROUNDTRIP
360
1369
  0
DICTIONARY
  5
1BE
330
1BD
100
AcDbDictionary
280
     1
281
     1
  3
ACAD_XREC_ROUNDTRIP
360
1BF
  0
DICTIONARY
  5
1C1
330
1C0
100
AcDbDictionary
280
     1
281
     1
  3
ACAD_XREC_ROUNDTRIP
360
1C2
  0
DMMAP
  5
17F
102
{ACAD_REACTORS
330
17A
330
182
102
}
330
17A
100
AcMapDMMap
 70
     1
  1
Default
 70
     1
330
0
100
AcMapDMMap
 70
     1
 90
        1
360
182
 90
        1
 40
1.797693134862314E+99
 70
     1
100
AcMapDMMap
 70
     2
 70
     0
 40
1.797693134862314E+99
290
     1
290
     1
 40
1.0
 40
3.0
  1
Legend
 90
        1
 40
1.797693134862314E+99
  1

 70
     0
 40
1.0
 70
     1
 90
        0
 90
        1
360
183
  0
DMSTYLECATEGORY
  5
17C
102
{ACAD_REACTORS
330
17B
102
}
330
17B
100
AcMapDMStyleCategory
 70
     1
  1
Display Styles
 70
     0
  0
DICTIONARY
  5
CBD
330
CBC
100
AcDbDictionary
280
     1
281
     1
  3
AcadLayerStateAnnoScale
360
CBE
  0
XRECORD
  5
74E
102
{ACAD_REACTORS
330
74D
102
}
330
74D
100
AcDbXrecord
280
     1
310
28000000000100008F0000000100080000000000008F0000000000000000000000010000000000000000000000000000FFFFFF000000000000000000000000000000000000000000000000000000000000000000330000006600000099000000CC000000FF00000000330000333300006633000099330000CC330000FF3300
310
0000660000336600006666000099660000CC660000FF66000000990000339900006699000099990000CC990000FF99000000CC000033CC000066CC000099CC0000CCCC0000FFCC000000FF000033FF000066FF000099FF0000CCFF0000FFFF000000003300330033006600330099003300CC003300FF003300003333003333
310
33006633330099333300CC333300FF33330000663300336633006666330099663300CC663300FF66330000993300339933006699330099993300CC993300FF99330000CC330033CC330066CC330099CC3300CCCC3300FFCC330000FF330033FF330066FF330099FF3300CCFF3300FFFF330000006600330066006600660099
310
006600CC006600FF00660000336600333366006633660099336600CC336600FF33660000666600336666006666660099666600CC666600FF66660000996600339966006699660099996600CC996600FF99660000CC660033CC660066CC660099CC6600CCCC6600FFCC660000FF660033FF660066FF660099FF6600CCFF6600
310
FFFF660000009900330099006600990099009900CC009900FF00990000339900333399006633990099339900CC339900FF33990000669900336699006666990099669900CC669900FF66990000999900339999006699990099999900CC999900FF99990000CC990033CC990066CC990099CC9900CCCC9900FFCC990000FF99
310
0033FF990066FF990099FF9900CCFF9900FFFF99000000CC003300CC006600CC009900CC00CC00CC00FF00CC000033CC003333CC006633CC009933CC00CC33CC00FF33CC000066CC003366CC006666CC009966CC00CC66CC00FF66CC000099CC003399CC006699CC009999CC00CC99CC00FF99CC0000CCCC0033CCCC0066CC
310
CC0099CCCC00CCCCCC00FFCCCC0000FFCC0033FFCC0066FFCC0099FFCC00CCFFCC00FFFFCC000000FF003300FF006600FF009900FF00CC00FF00FF00FF000033FF003333FF006633FF009933FF00CC33FF00FF33FF000066FF003366FF006666FF009966FF00CC66FF00FF66FF000099FF003399FF006699FF009999FF00CC
310
99FF00FF99FF0000CCFF0033CCFF0066CCFF0099CCFF00CCCCFF00FFCCFF0000FFFF0033FFFF0066FFFF0099FFFF00CCFFFF00FFFFFF00000000000D0D0D001A1A1A00282828003535350043434300505050005D5D5D006B6B6B00787878008686860093939300A1A1A100AEAEAE00BBBBBB00C9C9C900D6D6D600E4E4E400
310
F1F1F100FFFFFF0000000000000000000000000000000000000000000000000000000000000000000000000000000000E2E2E2E2E2E2E2E2E2E2E2E2E2E2E2E2E2E2E2E2E2E2E2E2E2E2E2E2E2E2E2E2E2E2E2E2E2E2E2E2E2E2E2BEE2E2E2BEBEBEBEBEBEBEBEE2BEE2E2E2E2E2E2E2E2E2E2E2E2E2E2E2E2E2E2E2E2E2E2
310
E2E2E2E2E2E2E2E2E2E2E2E2E2E2E2E2E2E2E2E2E2E2E2E2E2E2E2E2E2E22D2D2D2DE2E2E2E2E2E2E2E2E2E2E2E2E2E2E2E2E2E2E2E2E2E2E2E2E2E2E2E2E2E2E2E2E2E2E2E2E2E2E2E2E2E2E2E2E2E2E2E2E2E2E2E2E2E2E2E2E2E2E2E2E2E2E2E2E2E2BEE2E2E2E2E2E2E2E2E2E2E2E2E2E2E2E2E2E2E2BEE2E2E2E2E2E2
310
E2E2E2E2E2E2E2E2E2E2E2E2E2E2E2E2E2E2E2E2E2E2E2E2E2E2E2E2E2E2E2E2E2E2E2E2E2E2E2E2E2E2E2E2E2E2E2E2E2E2E2E2E2E2E2E2E2E2E2E2E2E2E2E2E2E2E2E2E2E2E2E2E2E2E2E2E2E2E2E2E2E2E2E2E2E2E2E2E2E2E2E2E2BEE2E2E2BEBEBEBEBEBEBEBEE2BEE2E2E2E2E2E2E2E2E2E2E2E2E2E2E2E2E2E2E2E2
310
E2E2E2E2E2E2E2E2E2E2E2E2E2E2E2E2E2E2E2E2E2E2E2E2E2E2E2E2E2E2E2E2DCDCDC2D2DE2E2E2E2E2E2E2E2E2E2E2E2E2E2E2E2E2E2E2E2E2E2E2E2E2E2E2E2E2E2E2E2E2E2E2E2E2E2E2E2E2E2E2E2E2E2E2E2E2E2E2E2E2E2E2E2E2E2E2E2E2E2E2E2E2E2E2E2E2E2E2E2E2E2E2E2E2E2E2E2E2E2E2E2E2BEE2E2E2E2
310
E2E2E2E2E2E2E2E2E2E2E2E2E2E2E2E2E2E2E2E2E2E2E2E2E2E2E2E2E2E2E2E2E2E2E2E2E2E2E2E2E2E2E2E2E2E2E2E2E2E2E2E2E2E2E2E2E2E2E2E2E2E2E2E2E2E2E2E2E2E2E2E2E2E2E2E2E2E2E2E2E2E2E2E2E2E2E2E2E2E2E2E2E2E2E2BEE2E2E2BEBEBEBEBEBEBEBEE2BEE2E2E2E2E2E2E2E2E2E2E2E2E2E2E2E2E2E2
310
E2E2E2E2E2E2E2E2E2E2E2E2E2E2E2E2E2E2E2E2E2E2E2E2E2E2E2E2E2E2E2E2E2E2DCDCDCDC2DE2E2E2E2E2E2E2E2E2E2E2E2E2E2E2E2E2E2E2E2E2E2E2E2E2E2E2E2E2E2E2E2E2E2E2E2E2E2E2E2E2E2E2E2E2E2E2E2E2E2E2E2E2E2E2E2E2E2E2E2E2E2E2E2E2E2E2E2E2E2E2E2E2E2E2E2E2E2E2E2E2E2E2E2E2BEE2E2
310
E2E2E2E2E2E2E2E2E2E2E2E2E2E2E2E2E2E2E2E2E2E2E2E2E2E2E2E2E2E2E2E2E2E2E2E2E2E2E2E2E2E2E2E2E2E2E2E2E2E2E2E2E2E2E2E2E2E2E2E2E2E2E2E2E2E2E2E2E2E2E2E2E2E2E2E2E2E2E2E2E2E2E2E2E2E2E2E2E2E2E2E2E2E2E2E2E2BEE2E2E2BEBEBEBEBEBEBEBEE2BEE2E2E2E2E2E2E2E2E2E2E2E2E2E2E2E2
310
E2E2E2E2E2E2E2E2E2E2E2E2E2E2E2E2E2E2E2E2E2E2E2E2E2E2E2E2E2E2E2E2E2E2E2E2DCDCDCDCE2DCDCE2E2E2E2E2E2E2E2E2E2E2E2E2E2E2E2E2E2E2E2E2E2E2E2E2E2E2E2E2E2E2E2E2E2E2E2E2E2E2E2E2E2E2E2E2E2E2E2E2E2E2E2E2E2E2E2E2E2E2E2E2E2E2E2E2E2E2E2E2E2E2E2E2E2E2E2E2E2E2E2E2E2E2BE
310
E2E2E2E2E2E2E2E2E2E2E2E2E2E2E2E2E2E2E2E2E2E2E2E2E2E2E2E2E2E2E2E2E2E2E2E2E2E2E2E2E2E2E2E2E2E2E2E2E2E2E2E2E2E2E2E2E2E2E2E2E2E2E2E2E2E2E2E2E2E2E2E2E2E2E2E2E2E2E2E2E2E2E2E2E2E2E2E2E2E2E2E2E2E2E2E2E2E2E2BEE2E2E2BEBEBEBEBEBEBEBEE2BEE2E2E2E2E2E2E2E2E2E2E2E2E2E2
310
E2E2E2E2E2E2E2E2E2E2E2E2E2E2E2E2E2E2E2E2E2E22D2D2D2DE22D2D2D2DE22D2D2D2D2DE22D2D2D2DE22D2D2D2D2DE22D2D2D2D2D2D2D2D2DE2E2E2E2E2E2E2E2E2E2E2E2E2E2E2E2E2E2E2E2E2E2E2E2E2E2E2E2E2E2E2E2E2E2E2E2E2E2E2E2E2E2E2E2E2E2E2E2E2E2E2E2E2E2E2E2E2E2E2E2E2E2E2E2E2E2E2E2E2
310
E2BEE2E2E2E2E2E2E2E2E2E2E2E2E2E2E2E2E2E2E2E2E2E2E2E2E2E2E2E2E2E2E2E2E2E2E2E2E2E2E2E2E2E2E2E2E2E2E2E2E2E2E2E2E2E2E2E2E2E2E2E2E2E2E2E2E2E2E2E2E2E2E2E2E2E2E2E2E2E2E2E2E2E2E2E2E2E2E2E2E2E2E2E2E2E2E2E2E2E2E2BEE2E2E2BEBEBEBEBEBEBEBEE2BEE2E2E2E2E2E2E2E2E2E2E2E2
310
E2E2E2E2E2E2E2E2E2E2E2E2E2E2E2E2E2E2E2E2E2E2E2E22D2D2D2D2D2D2D2D2D2D2D2D2D2D2D2D2D2D2D2D2D2D2D2D2D2D2D2D2D2D2D2D2D2D2D2DE2E2E2E2E2E2E2E2E2E2E2E2E2E2E2E2E2E2E2E2E2E2E2E2E2E2E2E2E2E2E2E2E2E2E2E2E2E2E2E2E2E2E2E2E2E2E2E2E2E2E2E2E2E2E2E2E2E2E2E2E2E2E2E2E2E2E2
310
E2E2E2BEE2E2E2E2E2E2E2E2E2E2E2E2E2E2E2E2E2E2E2E2E2E2E2E2E2E2E2E2E2E2E2E2E2E2E2E2E2E2E2E2E2E2E2E2E2E2E2E2E2E2E2E2E2E2E2E2E2E2E2E2E2E2E2E2E2E2E2E2E2E2E2E2E2E2E2E2E2E2E2E2E2E2E2E2E2E2E2E2E2E2E2E2E2E2E2E2E2E2E2BEE2E2E2BEBEBEBEBEBEBEBEE2BEE2E2E2E2E2E2E2E2E2E2
310
E2E2E2E2E2E2E2E2E2E2E2E2E2E2E2E2E2E2E2E2E2E2E2E2E2E22D8383E2E2E28383E2E2E283E2E2E28383E2E2DC83E2E2E28383E2DCDC83E2E2E283832DE2E2E2E2E2E2E2E2E2E2E2E2E2E2E2E2E2E2E2E2E2E2E2E2E2E2E2E2E2E2E2E2E2E2E2E2E2E2E2E2E2E2E2E2E2E2E2E2E2E2E2E2E2E2E2E2E2E2E2E2E2E2E2E2E2
310
E2E2E2E2E2BEE2E2E2E2E2E2E2E2E2E2E2E2E2E2E2E2E2E2E2E2E2E2E2E2E2E2E2E2E2E2E2E2E2E2E2E2E2E2E2E2E2E2E2E2E2E2E2E2E2E2E2E2E2E2E2E2E2E2E2E2E2E2E2E2E2E2E2E2E2E2E2E2E2E2E2E2E2E2E2E2E2E2E2E2E2E2E2E2E2E2E2E2E2E2E2E2E2E2E2BEE2E2E2BEBEBEBEBEBEBEBEE2BEE2E2E2E2E2E2E2E2
310
E2E2E2E2E2E2E2E2E2E2E2E2E2E2E2E2E2E2E2E2E2E2E2E2E2E2E2E22D2D832D2D2D83832D2D2D832D2D2D8383DCDC2D832DDC2D83832D2D2D832D2D2D83832DE2E2E2E2E2E2E2E2E2E2E2E2E2E2E2E2E2E2E2E2E2E2E2E2E2E2E2E2E2E2E2E2E2E2E2E2E2E2E2E2E2E2E2E2E2E2E2E2E2E2E2E2E2E2E2E2E2E2E2E2E2E2E2
310
E2E2E2E2E2E2E2BEE2E2E2E2E2E2E2E2E2E2E2E2E2E2E2E2E2E2E2E2E2E2E2E2E2E2E2E2E2E2E2E2E2E2E2E2E2E2E2E2E2E2E2E2E2E2E2E2E2E2E2E2E2E2E2E2E2E2E2E2E2E2E2E2E2E2E2E2E2E2E2E2E2E2E2E2E2E2E2E2E2E2E2E2E2E2E2E2E2E2E2E2E2E2E2E2E2E2E2BEE2E2E2BEBEBEBEBEBEBEBEE2BEE2E2E2E2E2E2
310
E2E2E2E2E2E2E2E2E2E2E2E2E2E2E2E2E2E2E2E2E2E2E2E2E2E2E2E2E2E2E28383E2E2E28383E2E2E283E2E2E28383E2E2E283E2E2DCDC83E2E2E283E2DCDC8383E2E2E2E2E2E2E2E2E2E2E2E2E2E2E2E2E2E2E2E2E2E2E2E2E2E2E2E2E2E2E2E2E2E2E2E2E2E2E2E2E2E2E2E2E2E2E2E2E2E2E2E2E2E2E2E2E2E2E2E2E2E2
310
E2E2E2E2E2E2E2E2E2BEE2E2E2E2E2E2E2E2E2E2E2E2E2E2E2E2E2E2E2E2E2E2E2E2E2E2E2E2E2E2E2E2E2E2E2E2E2E2E2E2E2E2E2E2E2E2E2E2E2E2E2E2E2E2E2E2E2E2E2E2E2E2E2E2E2E2E2E2E2E2E2E2E2E2E2E2E2E2E2E2E2E2E2E2E2E2E2E2E2E2E2E2E2E2E2E2E2E2E2BEE2E2E2BEBEBEBEBEBEBEBEE2BEE2E2E2E2
310
E2E2E2E2E2E2E2E2E2E2E2E2E2E2E2E2E2E2E2E2E2E2E2E2E2E2E2E2E2E2E2E22D8383E2E2E28383E2E2E283E2E2E28383E2E2E283E2E2E283DCE2E2E283E2E2E283832DE2E2E2E2E2E2E2E2E2E2E2E2E2E2E2E2E2E2E2E2E2E2E2E2E2E2E2E2E2E2E2E2E2E2E2E2E2E2E2E2E2E2E2E2E2E2E2E2E2E2E2E2E2E2E2E2E2E2E2
310
E2E2E2E2E2E2E2E2E2E2E2BEE2E2E2E2E2E2E2E2E2E2E2E2E2E2E2E2E2E2E2E2E2E2E2E2E2E2E2E2E2E2E2E2E2E2E2E2E2E2E2E2E2E2E2E2E2E2E2E2E2E2E2E2E2E2E2E2E2E2E2E2E2E2E2E2E2E2E2E2E2E2E2E2E2E2E2E2E2E2E2E2E2E2E2E2E2E2E2E2E2E2E2E2E2E2E2E2E2E2E2BEE2E2E2BEBEBEBEBEBEBEBEE2BEE2E2
310
E2E2E2E2E2E2E2E2E2E2E2E2E2E2E2E2E2E2E2E2E2E2E2E2E2E2E2E2E2E2E2E2E2E22D8383E2E2E28383E2E2E283E2E2E28383E2E2E283E2E2E28383DCE2E283E2E2E283832DDCE2E2E2E2E2E2E2E2E2E2E2E2E2E2E2E2E2E2E2E2E2E2E2E2E2E2E2E2E2E2E2E2E2E2E2E2E2E2E2E2E2E2E2E2E2E2E2E2E2E2E2E2E2E2E2E2
310
E2E2E2E2E2E2E2E2E2E2E2E2E2BEE2E2E2E2E2E2E2E2E2E2E2E2E2E2E2E2E2E2E2E2E2E2E2E2E2E2E2E2E2E2E2E2E2E2E2E2E2E2E2E2E2E2E2E2E2E2E2E2E2E2E2E2E2E2E2E2E2E2E2E2E2E2E2E2E2E2E2E2E2E2E2E2E2E2E2E2E2E2E2E2E2E2E2E2E2E2E2E2E2E2E2E2E2E2E2E2E2E2E2BEE2E2E2BEBEBEBEBEBEBEBEE2BE
310
E2E2E2E2E2E2E2E2E2E2E2E2E2E2E2E2E2E2E2E2E2E2E2E2E2E2E2E2E2E2E2E2E2E2E2E22D8383E2E2E28383E2E2E283E2E2E28383E2E2E283E2E2E28383E2DCDC83E2E2E283832DE2DCDCE2E2E2E2E2E2E2E2E2E2E2E2E2E2E2E2E2E2E2E2E2E2E2E2E2E2E2E2E2E2E2E2E2E2E2E2E2E2E2E2E2E2E2E2E2E2E2E2E2E2E2E2
310
E2E2E2E2E2E2E2E2E2E2E2E2E2E2E2BEE2E2E2E2E2E2E2E2E2E2E2E2E2E2E2E2E2E2E2E2E2E2E2E2E2E2E2E2E2E2E2E2E2E2E2E2E2E2E2E2E2E2E2E2E2E2E2E2E2E2E2E2E2E2E2E2E2E2E2E2E2E2E2E2E2E2E2E2E2E2E2E2E2E2E2E2E2E2E2E2E2E2E2E2E2E2E2E2E2E2E2E2E2E2E2E2E2E2E2BEE2E2E2BEBEBEBEBEBEBEBE
310
E2BEE2E2E2E2E2E2E2E2E2E2E2E2E2E2E2E2E2E2E2E2E2E2E2E2E2E2E2E2E2E2E2E2E2E2E2E22D8383E2E2E28383E2E2E283E2E2E28383E2E2E283E2E2E28383E2E2E2DCE2E2E283832DE2E2E2DCDCE2E2E2E2E2E2E2E2E2E2E2E2DCDCDCDCDCDCDCDCDCE2E2DCDCE2DCE2DCDCE2DCDCDCE2DCE2DCDCDCE2E2E2E2E2E2E2E2
310
E2E2E2E2E2E2E2E2E2E2E2E2E2E2E2E2E2BEE2E2E2E2E2E2E2E2E2E2E2E2E2E2E2E2E2E2E2E2E2E2E2E2E2E2E2E2E2E2E2E2E2E2E2E2E2E2E2E2E2E2E2E2E2E2E2E2E2E2E2E2E2E2E2E2E2E2E2E2E2E2E2E2E2E2E2E2E2E2E2E2E2E2E2E2E2E2E2E2E2E2E2E2E2E2E2E2E2E2E2E2E2E2E2E2E2E2E2BEE2E2E2BEBEBEBEBEBE
310
BEBEE2BEE2E2E2E2E2E2E2E2E2E2E2E2E2E2E2E2E2E2E2E2E2E2E2E2E2E2E2E2E2E2E2E2E2E2E2E2E28383E2E2E28383E2E2E283E2E2E28383E2E2E283E2E2E28383E2E2E283DCE2E28383E2E2E2E2E2E2DCDCE2E2E2E2E2E2E2E2E2E2DCDCDCDCDCDCDCDCDCDCDCDCDCE2DCDCDCDCE2DCDCDCE2DCDCDCDCDCDCE2E2E2E2E2
310
E2E2E2E2E2E2E2E2E2E2E2E2E2E2E2E2E2E2E2BEE2E2E2E2E2E2E2E2E2E2E2E2E2E2E2E2E2E2E2E2E2E2E2E2E2E2E2E2E2E2E2E2E2E2E2E2E2E2E2E2E2E2E2E2E2E2E2E2E2E2E2E2E2E2E2E2E2E2E2E2E2E2E2E2E2E2E2E2E2E2E2E2E2E2E2E2E2E2E2E2E2E2E2E2E2E2E2E2E2E2E2E2E2E2E2E2E2E2E2BEE2E2E2BEBEBEBE
310
BEBEBEBEE2BEE2E2E2E2E2E2E2E2E2E2E2E2E2E2E2E2E2E2E2E2E2E2E2E2E2E2E2E2E2E2E2E2E2E2E2E22D8383E2E2E28383E2E2E283E2E2E28383E2E2E283E2E2E28383E2E2E283E2DCE283832DE2E2E2E2E2E2E2DCDCE2E2E2E2E2E2E2E2DCDCDCDCDCDCDCDCE2DCDCDCDCDCDCDCE2DCDCDCDCDCDCE2E2E2E2E2E2E2E2E2
310
E2E2E2E2E2E2E2E2E2E2E2E2E2E2E2E2E2E2E2E2E2BEE2E2E2E2E2E2E2E2E2E2E2E2E2E2E2E2E2E2E2E2E2E2E2E2E2E2E2E2E2E2E2E2E2E2E2E2E2E2E2E2E2E2E2E2E2E2E2E2E2E2E2E2E2E2E2E2E2E2E2E2E2E2E2E2E2E2E2E2E2E2E2E2E2E2E2E2E2E2E2E2E2E2E2E2E2E2E2E2E2E2E2E2E2E2E2E2E2E2E2BEE2E2E2BEBE
310
BEBEBEBEBEBEE2BEE2E2E2E2E2E2E2E2E2E2E2E2E2E2E2E2E2E2E2E2E2E2E2E2E2E2E2E2E2E2E2E2E2E2E2E22D8383E2E2E28383E2E2E283E2E2E28383E2E2E283E2E2E28383E2E2E283E2E2DC83832DE2E2E2E2E2E2E2E2E2DCDCDCDCDCDCDCE2DCDCDCDCDCDCDCE2E2DCDCDCDCDCDCDCE2DCDCDCDCDCE2E2E2E2E2E2E2E2
310
E2E2E2E2E2E2E2E2E2E2E2E2E2E2E2E2E2E2E2E2E2E2E2BEE2E2E2E2E2E2E2E2E2E2E2E2E2E2E2E2E2E2E2E2E2E2E2E2E2E2E2E2E2E2E2E2E2E2E2E2E2E2E2E2E2E2E2E2E2E2E2E2E2E2E2E2E2E2E2E2E2E2E2E2E2E2E2E2E2E2E2E2E2E2E2E2E2E2E2E2E2E2E2E2E2E2E2E2E2E2E2E2E2E2E2E2E2E2E2E2E2E2E2BEE2E2E2
310
BEBEBEBEBEBEBEBEE2BEE2E2E2E2E2E2E2E2E2E2E2E2E2E2E2E2E2E2E2E2E2E2E2E2E2E2E2E2E2E2E2E2E2E2E2E22D8383E2E2E28383E2E2E283E2E2E28383E2E2E283E2E2E28383E2E2E283E2E2E2DC832DE2E2E2E2E2E2E2E2E2E2E2E2E2E2E2E2E2DCDCDCDCDCDCDCE2E2DCDCDCDCDCDCDCDCDCDCDCDCDCDCE2E2E2E2E2
310
E2E2E2E2E2E2E2E2E2E2E2E2E2E2E2E2E2E2E2E2E2E2E2E2E2BEE2E2E2E2E2E2E2E2E2E2E2E2E2E2E2E2E2E2E2E2E2E2E2E2E2E2E2E2E2E2E2E2E2E2E2E2E2E2E2E2E2E2E2E2E2E2E2E2E2E2E2E2E2E2E2E2E2E2E2E2E2E2E2E2E2E2E2E2E2E2E2E2E2E2E2E2E2E2E2E2E2E2E2E2E2E2E2E2E2E2E2E2E2E2E2E2E2E2E2BEE2
310
E2E2BEBEBEBEBEBEBEBEE2BEE2E2E2E2E2E2E2E2E2E2E2E2E2E2E2E2E2E2E2E2E2E2E2E2E2E2E2E2E2E2E2E2E2E2E2E22D8383E2E2E28383E2E2E283E2E2E28383E2E2E283E2E2E28383E2E2E283E2E2E283DC2DE2E2E2E2E2E2E2E2E2E2E2E2E2E2E2E2E2E2E2E2E2E2E2E2E2E2E2E2E2E2E2E2E2E2E2E2E2E2E2E2E2E2E2
310
E2E2E2E2E2E2E2E2E2E2E2E2E2E2E2E2E2E2E2E2E2E2E2E2E2E2E2BEE2E2E2E2E2E2E2E2E2E2E2E2E2E2E2E2E2E2E2E2E2E2E2E2E2E2E2E2E2E2E2E2E2E2E2E2E2E2E2E2E2E2E2E2E2E2E2E2E2E2E2E2E2E2E2E2E2E2E2E2E2E2E2E2E2E2E2E2E2E2E2E2E2E2E2E2E2E2E2E2E2E2E2E2E2E2E2E2E2E2E2E2E2E2E2E2E2E2E2
310
BEE2E2E2BEBEBEBEBEBEBEBEE2BEE2E2E2E2E2E2E2E2E2E2E2E2E2E2E2E2E2E2E2E2E2E2E2E2E2E2E2E2E2E2E2E2E2E2E2E22D8383E2E2E28383E2E2E283E2E2E28383E2E2E283E2E2E28383E2E2E283E2E2E28383DCDCE2E2E2E2E2E2E2E2E2E2E2E2E2E2E2E2E2E2E2E2E2E2E2E2E2E2E2E2E2E2E2E2E2E2E2E2E2E2E2E2
310
E2E2E2E2E2E2E2E2E2E2E2E2E2E2E2E2E2E2E2E2E2E2E2E2E2E2E2E2E2BEE2E2E2E2E2E2E2E2E2E2E2E2E2E2E2E2E2E2E2E2E2E2E2E2E2E2E2E2E2E2E2E2E2E2E2E2E2E2E2E2E2E2E2E2E2E2E2E2E2E2E2E2E2E2E2E2E2E2E2E2E2E2E2E2E2E2E2E2E2E2E2E2E2E2E2E2E2E2E2E2E2E2E2E2E2E2E2E2E2E2E2E2E2E2E2E2E2
310
E2E2BEE2E2E2BEBEBEBEBEBEBEBEE2BEE2E2E2E2E2E2E2E2E2E2E2E2E2E2E2E2E2E2E2E2E2E2E2E2E2E2E2E2E2E2E2E2E2E2E2E2E28383E2E2E28383E2E2E283E2E2E28383E2E2E283E2E2E28383E2E2E283E2E2E28383E2E2DCE2E2E2E2E2E2E2E2E2E2E2E2E2E2E2E2E2E2E2E2E2E2E2E2E2E2E2E2E2E2E2E2E2E2E2E2E2
310
E2E2E2E2E2E2E2E2E2E2E2E2E2E2E2E2E2E2E2E2E2E2E2E2E2E2E2E2E2E2E2BEE2E2E2E2E2E2E2E2E2E2E2E2E2E2E2E2E2E2E2E2E2E2E2E2E2E2E2E2E2E2E2E2E2E2E2E2E2E2E2E2E2E2E2E2E2E2E2E2E2E2E2E2E2E2E2E2E2E2E2E2E2E2E2E2E2E2E2E2E2E2E2E2E2E2E2E2E2E2E2E2E2E2E2E2E2E2E2E2E2E2E2E2E2E2E2
310
E2E2E2E2BEE2E2E2BEBEBEBEBEBEBEBEE2BEE2E2E2E2E2E2E2E2E2E2E2E2E2E2E2E2E2E2E2E2E2E2E2E2E2E2E2E2E2E2E2E2E2E2E2E22D8383E2E2E28383E2E2E283E2E2E28383E2E2E283E2E2E28383E2E2E283E2E2E283832DE2E2DCE2E2E2E2E2E2E2E2E2E2E2E2E2E2DCDCDCDCE2DCDCDCE2DCDCDCDCDCE2DCDCDCDCDC
310
DCDCDCDCE2DCDCDCDCDCDCDCDCE2E2E2E2E2E2E2E2E2E2E2E2E2E2E2E2E2E2E2E2BEE2E2E2E2E2E2E2E2E2E2E2E2E2E2E2E2E2E2E2E2E2E2E2E2E2E2E2E2E2E2E2E2E2E2E2E2E2E2E2E2E2E2E2E2E2E2E2E2E2E2E2E2E2E2E2E2E2E2E2E2E2E2E2E2E2E2E2E2E2E2E2E2E2E2E2E2E2E2E2E2E2E2E2E2E2E2E2E2E2E2E2E2E2
310
E2E2E2E2E2E2BEE2E2E2BEBEBEBEBEBEBEBEE2BEE2E2E2E2E2E2E2E2E2E2E2E2E2E2E2E2E2E2E2E2E2E2E2E2E2E2E2E2E2E2E2E2E2E2E2E22D8383E2E2E28383E2E2E283E2E2E28383E2E2E283E2E2E28383E2E2E283E2E2E283832DE2E2E2DCDCDCDCDCDCDCDCDCDCDCDCDCE2DCDCDCDCE2DCDCDCE2DCDCDCDCDCE2DCDCDC
310
DCDCDCDCDCDCE2DCDCDCDCDCDCDCDCE2E2E2E2E2E2E2E2E2E2E2E2E2E2E2E2E2E2E2E2BEE2E2E2E2E2E2E2E2E2E2E2E2E2E2E2E2E2E2E2E2E2E2E2E2E2E2E2E2E2E2E2E2E2E2E2E2E2E2E2E2E2E2E2E2E2E2E2E2E2E2E2E2E2E2E2E2E2E2E2E2E2E2E2E2E2E2E2E2E2E2E2E2E2E2E2E2E2E2E2E2E2E2E2E2E2E2E2E2E2E2E2
310
E2E2E2E2E2E2E2E2BEE2E2E2BEBEBEBEBEBEBEBEE2BEE2E2E2E2E2E2E2E2E2E2E2E2E2E2E2E2E2E2E2E2E2E2E2E2E2E2E2E2E2E2E2E2E2E2E2E22D8383E2E2E28383E2E2E283E2E2E28383E2E2E283E2E2E28383E2E2E283E2E2E283832DE2E2E2E2E2E2E2E2E2E2E2E2E2E2E2E2E2DCDCDCDCE2DCDCDCE2DCDCDCDCDCDCDC
310
DCDCDCDCDCDCDCDCDCDCDCDCDCDCDCDCDCE2E2E2E2E2E2E2E2E2E2E2E2E2E2E2E2E2E2E2E2BEE2E2E2E2E2E2E2E2E2E2E2E2E2E2E2E2E2E2E2E2E2E2E2E2E2E2E2E2E2E2E2E2E2E2E2E2E2E2E2E2E2E2E2E2E2E2E2E2E2E2E2E2E2E2E2E2E2E2E2E2E2E2E2E2E2E2E2E2E2E2E2E2E2E2E2E2E2E2E2E2E2E2E2E2E2E2E2E2E2
310
E2E2E2E2E2E2E2E2E2E2BEE2E2E2BEBEBEBEBEBEBEBEE2BEE2E2E2E2E2E2E2E2E2E2E2E2E2E2E2E2E2E2E2E2E2E2E2E2E2E2E2E2E2E2E2E2E2E2E2E22D8383E2E2E28383E2E2E283E2E2E28383E2E2E283E2E2E28383E2E2E283E2E2E283832DE2E2E2E2E2E2E2E2E2E2E2E2E2E2E2E2E2E2E2E2E2E2E2E2E2E2E2E2E2E2E2
310
E2E2E2E2E2E2E2E2E2E2E2E2E2E2E2E2E2E2E2E2E2E2E2E2E2E2E2E2E2E2E2E2E2E2E2E2E2E2E2BEE2E2E2E2E2E2E2E2E2E2E2E2E2E2E2E2E2E2E2E2E2E2E2E2E2E2E2E2E2E2E2E2E2E2E2E2E2E2E2E2E2E2E2E2E2E2E2E2E2E2E2E2E2E2E2E2E2E2E2E2E2E2E2E2E2E2E2E2E2E2E2E2E2E2E2E2E2E2E2E2E2E2E2E2E2E2E2
310
E2E2E2E2E2E2E2E2E2E2E2E2BEE2E2E2BEBEBEBEBEBEBEBEE2BEE2E2E2E2E2E2E2E2E2E2E2E2E2E2E2E2E2E2E2E2E2E2E2E2E2E2E2E2E2E2E2E2E2E2E2E2E28383E2E2E28383E2E2E283E2E2E28383E2E2E283E2E2E28383E2E2E283E2E2E28383E2E2E2E2E2E2E2E2E2E2E2E2E2E2E2E2E2E2E2E2E2E2E2E2E2E2E2E2E2E2
310
E2E2E2E2E2E2E2E2E2E2E2E2E2E2E2E2E2E2E2E2E2E2E2E2E2E2E2E2E2E2E2E2E2E2E2E2E2E2E2E2E2BEE2E2E2E2E2E2E2E2E2E2E2E2E2E2E2E2E2E2E2E2E2E2E2E2E2E2E2E2E2E2E2E2E2E2E2E2E2E2E2E2E2E2E2E2E2E2E2E2E2E2E2E2E2E2E2E2E2E2E2E2E2E2E2E2E2E2E2E2E2E2E2E2E2E2E2E2E2E2E2E2E2E2E2E2E2
310
E2E2E2E2E2E2E2E2E2E2E2E2E2E2BEE2E2E2BEBEBEBEBEBEBEBEE2BEE2E2E2E2E2E2E2E2E2E2E2E2E2E2E2E2E2E2E2E2E2E2E2E2E2E2E2E2E2E2E2E2E2E2E2E22D8383E2E2E28383E2E2E283E2E2E28383E2E2E283E2E2E28383E2E2E283E2E2E283832DE2E2E2E2E2E2E2E2E2E2E2E2E2E2E2E2E2E2E2E2E2E2E2E2E2E2E2
310
E2E2E2E2E2E2E2E2E2E2E2E2E2E2E2E2E2E2E2E2E2E2E2E2E2E2E2E2E2E2E2E2E2E2E2E2E2E2E2E2E2E2E2BEE2E2E2E2E2E2E2E2E2E2E2E2E2E2E2E2E2E2E2E2E2E2E2E2E2E2E2E2E2E2E2E2E2E2E2E2E2E2E2E2E2E2E2E2E2E2E2E2E2E2E2E2E2E2E2E2E2E2E2E2E2E2E2E2E2E2E2E2E2E2E2E2E2E2E2E2E2E2E2E2E2E2E2
310
E2E2E2E2E2E2E2E2E2E2E2E2E2E2E2E2BEE2E2E2BEBEBEBEBEBEBEBEE2BEE2E2E2E2E2E2E2E2E2E2E2E2E2E2E2E2E2E2E2E2E2E2E2E2E2E2E2E2E2E2E2E2E2E2E2E22D8383E2E2E28383E2E2E283E2E2E28383E2E2E283E2E2E28383E2E2E283E2E2E283832DE2DCE2E2E2E2E2E2E2E2E2E2E2E2E2E2DCDCDCDCDCDCE2DCDC
310
DCDCDCDCDCDCDCDCDCE2E2E2E2E2E2E2E2E2E2E2E2E2E2E2E2E2E2E2E2E2E2E2E2E2E2E2E2E2E2E2E2E2E2E2E2BEE2E2E2E2E2E2E2E2E2E2E2E2E2E2E2E2E2E2E2E2E2E2E2E2E2E2E2E2E2E2E2E2E2E2E2E2E2E2E2E2E2E2E2E2E2E2E2E2E2E2E2E2E2E2E2E2E2E2E2E2E2E2E2E2E2E2E2E2E2E2E2E2E2E2E2E2E2E2E2E2E2
310
E2E2E2E2E2E2E2E2E2E2E2E2E2E2E2E2E2E2BEE2E2E2BEBEBEBEBEBEBEBEE2BEE2E2E2E2E2E2E2E2E2E2E2E2E2E2E2E2E2E2E2E2E2E2E2E2E2E2E2E2E2E2E2E2E2E2E2E22D8383E2E2E28383E2E2E283E2E2E28383E2E2E283E2E2E28383E2E2E283E2E2E283832DDCDCDCDCDCDCDCDCDCDCDCDCDCDCDCDCDCDCDCDCDCDCE2
310
DCDCDCDCDCDCDCDCDCDCDCE2E2E2E2E2E2E2E2E2E2E2E2E2E2E2E2E2E2E2E2E2E2E2E2E2E2E2E2E2E2E2E2E2E2E2E2BEE2E2E2E2E2E2E2E2E2E2E2E2E2E2E2E2E2E2E2E2E2E2E2E2E2E2E2E2E2E2E2E2E2E2E2E2E2E2E2E2E2E2E2E2E2E2E2E2E2E2E2E2E2E2E2E2E2E2E2E2E2E2E2E2E2E2E2E2E2E2E2E2E2E2E2E2E2E2E2
310
E2E2E2E2E2E2E2E2E2E2E2E2E2E2E2E2E2E2E2E2BEE2E2E2BEBEBEBEBEBEBEBEE2BEE2E2E2E2E2E2E2E2E2E2E2E2E2E2E2E2E2E2E2E2E2E2E2E2E2E2E2E2E2E2E2E2E2E2E2E22D8383E2E2E28383E2E2E283E2E2E28383E2E2E283E2E2E28383E2E2E283E2E2E283832DE2E2E2E2E2E2E2E2E2E2E2E2E2E2E2E2E2DCDCDCDC
310
E2E2DCDCDCDCDCDCDCDCDCDCDCE2E2E2E2E2E2E2E2E2E2E2E2E2E2E2E2E2E2E2E2E2E2E2E2E2E2E2E2E2E2E2E2E2E2E2E2BEE2E2E2E2E2E2E2E2E2E2E2E2E2E2E2E2E2E2E2E2E2E2E2E2E2E2E2E2E2E2E2E2E2E2E2E2E2E2E2E2E2E2E2E2E2E2E2E2E2E2E2E2E2E2E2E2E2E2E2E2E2E2E2E2E2E2E2E2E2E2E2E2E2E2E2E2E2
310
E2E2E2E2E2E2E2E2E2E2E2E2E2E2E2E2E2E2E2E2E2E2BEE2E2E2BEBEBEBEBEBEBEBEE2BEE2E2E2E2E2E2E2E2E2E2E2E2E2E2E2E2E2E2E2E2E2E2E2E2E2E2E2E2E2E2E2E2E2E2E2E22D8383E2E2E28383E2E2E283E2E2E28383E2E2E283E2E2E28383E2E2E283E2E2E283832DE2E2E2E2E2E2E2E2E2E2E2E2E2E2E2E2E2E2E2
310
E2E2E2E2E2E2E2E2E2E2E2E2E2E2E2E2E2E2E2E2E2E2E2E2E2E2E2E2E2E2E2E2E2E2E2E2E2E2E2E2E2E2E2E2E2E2E2E2E2E2E2BEE2E2E2E2E2E2E2E2E2E2E2E2E2E2E2E2E2E2E2E2E2E2E2E2E2E2E2E2E2E2E2E2E2E2E2E2E2E2E2E2E2E2E2E2E2E2E2E2E2E2E2E2E2E2E2E2E2E2E2E2E2E2E2E2E2E2E2E2E2E2E2E2E2E2E2
310
E2E2E2E2E2E2E2E2E2E2E2E2E2E2E2E2E2E2E2E2E2E2E2E2BEE2E2E2BEBEBEBEBEBEBEBEE2BEE2E2E2E2E2E2E2E2E2E2E2E2E2E2E2E2E2E2E2E2E2E2E2E2E2E2E2E2E2E2E2E2E2E2E2E2E28383E2E2E28383E2E2E283E2E2E28383E2E2E283E2E2E28383E2E2E283E2E2E28383E2E2E2E2E2E2E2E2E2E2E2E2E2E2E2E2E2E2
310
E2E2E2E2E2E2E2E2E2E2E2E2E2E2E2E2E2E2E2E2E2E2E2E2E2E2E2E2E2E2E2E2E2E2E2E2E2E2E2E2E2E2E2E2E2E2E2E2E2E2E2E2E2BEE2E2E2E2E2E2E2E2E2E2E2E2E2E2E2E2E2E2E2E2E2E2E2E2E2E2E2E2E2E2E2E2E2E2E2E2E2E2E2E2E2E2E2E2E2E2E2E2E2E2E2E2E2E2E2E2E2E2E2E2E2E2E2E2E2E2E2E2E2E2E2E2E2
310
E2E2E2E2E2E2E2E2E2E2E2E2E2E2E2E2E2E2E2E2E2E2E2E2E2E2BEE2E2E2BEBEBEBEBEBEBEBEE2BEE2E2E2E2E2E2E2E2E2E2E2E2E2E2E2E2E2E2E2E2E2E2E2E2E2E2E2E2E2E2E2E2E2E2E2E22D8383E2E2E28383E2E2E283E2E2E28383E2E2E283E2E2E28383E2E2E283E2E2E283832DE2E2E2E2E2E2E2E2E2E2E2E2E2E2E2
310
E2E2E2E2E2E2E2E2E2E2E2E2E2E2E2E2E2E2E2E2E2E2E2E2E2E2E2E2E2E2E2E2E2E2E2E2E2E2E2E2E2E2E2E2E2E2E2E2E2E2E2E2E2E2E2BEE2E2E2E2E2E2E2E2E2E2E2E2E2E2E2E2E2E2E2E2E2E2E2E2E2E2E2E2E2E2E2E2E2E2E2E2E2E2E2E2E2E2E2E2E2E2E2E2E2E2E2E2E2E2E2E2E2E2E2E2E2E2E2E2E2E2E2E2E2E2E2
310
E2E2E2E2E2E2E2E2E2E2E2E2E2E2E2E2E2E2E2E2E2E2E2E2E2E2E2E2BEE2E2E2BEBEBEBEBEBEBEBEE2BEE2E2E2E2E2E2E2E2E2E2E2E2E2E2E2E2E2E2E2E2E2E2E2E2E2E2E2E2E2E2E2E2E2E2E2E22D8383E2E2E28383E2E2E283E2E2E28383E2E2E283E2E2E28383E2E2E283E2E2E283832DE2E2E2E2E2E2E2E2E2E2E2E2E2
310
E2E2E2E2E2E2E2E2E2E2E2E2DCDCE2E2E2E2E2E2E2E2E2E2E2E2E2E2E2E2E2E2E2E2E2E2E2E2E2E2E2E2E2E2E2E2E2E2E2E2E2E2E2E2E2E2E2BEE2E2E2E2E2E2E2E2E2E2E2E2E2E2E2E2E2E2E2E2E2E2E2E2E2E2E2E2E2E2E2E2E2E2E2E2E2E2E2E2E2E2E2E2E2E2E2E2E2E2E2E2E2E2E2E2E2E2E2E2E2E2E2E2E2E2E2E2E2
310
E2E2E2E2E2E2E2E2E2E2E2E2E2E2E2E2E2E2E2E2E2E2E2E2E2E2E2E2E2E2BEE2E2E2BEBEBEBEBEBEBEBEE2BEE2E2E2E2E2E2E2E2E2E2E2E2E2E2E2E2E2E2E2E2E2E2E2E2E2E2E2E2E2E2E2E2E2E2E2E22D8383E2E2E28383E2E2E283E2E2E28383E2E2E283E2E2E28383E2E2E283E2E2E283832DE2E2E2E2E2E2E2E2E2E2E2
310
E2E2E2E2E2E2DCDCDCDCDCDCDCDCDCDCDCDCDCE2DCDCDCDCDCDCDCDCDCDCE2E2E2E2E2E2E2E2E2E2E2E2E2E2E2E2E2E2E2E2E2E2E2E2E2E2E2E2E2BEE2E2E2E2E2E2E2E2E2E2E2E2E2E2E2E2E2E2E2E2E2E2E2E2E2E2E2E2E2E2E2E2E2E2E2E2E2E2E2E2E2E2E2E2E2E2E2E2E2E2E2E2E2E2E2E2E2E2E2E2E2E2E2E2E2E2E2
310
E2E2E2E2E2E2E2E2E2E2E2E2E2E2E2E2E2E2E2E2E2E2E2E2E2E2E2E2E2E2E2E2BEE2E2E2BEBEBEBEBEBEBEBEE2BEE2E2E2E2E2E2E2E2E2E2E2E2E2E2E2E2E2E2E2E2E2E2E2E2E2E2E2E2E2E2E2E2E2E2E2E22D8383E2E2E28383E2E2E283E2E2E28383E2E2E283E2E2E28383E2E2E283E2E2E283832DE2E2E2E2E2E2E2E2E2
310
DCDCDCDCDCDCDCE2DCDCDCDCDCDCDCDCE2E2DCDCDCDCDCDCDCDCDCDCDCDCDCDCE2E2E2E2E2E2E2E2E2E2E2E2E2E2E2E2E2E2E2E2E2E2E2E2E2E2E2E2E2BEE2E2E2E2E2E2E2E2E2E2E2E2E2E2E2E2E2E2E2E2E2E2E2E2E2E2E2E2E2E2E2E2E2E2E2E2E2E2E2E2E2E2E2E2E2E2E2E2E2E2E2E2E2E2E2E2E2E2E2E2E2E2E2E2E2
310
E2E2E2E2E2E2E2E2E2E2E2E2E2E2E2E2E2E2E2E2E2E2E2E2E2E2E2E2E2E2E2E2E2E2BEE2E2E2BEBEBEBEBEBEBEBEE2BEE2E2E2E2E2E2E2E2E2E2E2E2E2E2E2E2E2E2E2E2E2E2E2E2E2E2E2E2E2E2E2E2E2E2E2E2E28383E2E2E28383E2E2E283E2E2E28383E2E2E283E2E2E28383E2E2E283E2E2E28383E2E2E2E2E2E2E2DC
310
DCDCE2E2E2E2E2E2E2E2E2E2E2E2E2E2E2E2E2E2E2E2E2E2E2E2E2E2E2E2E2E2E2E2E2E2E2E2E2E2E2E2E2E2E2E2E2E2E2E2E2E2E2E2E2E2E2E2E2E2E2E2E2BEE2E2E2E2E2E2E2E2E2E2E2E2E2E2E2E2E2E2E2E2E2E2E2E2E2E2E2E2E2E2E2E2E2E2E2E2E2E2E2E2E2E2E2E2E2E2E2E2E2E2E2E2E2E2E2E2E2E2E2E2E2E2E2
310
E2E2E2E2E2E2E2E2E2E2E2E2E2E2E2E2E2E2E2E2E2E2E2E2E2E2E2E2E2E2E2E2E2E2E2E2BEE2E2E2BEBEBEBEBEBEBEBEE2BEE2E2E2E2E2E2E2E2E2E2E2E2E2E2E2E2E2E2E2E2E2E2E2E2E2E2E2E2E2E2E2E2E2E2E2E22D8383E2E2E28383E2E2E283E2E2E28383E2E2E283E2E2E28383E2E2E283E2E2E283832DE2E2E2DCDC
310
DCE2E2E2E2E2E2E2E2E2E2E2E2E2E2E2E2E2E2E2E2E2E2E2E2E2E2E2E2E2E2E2E2E2E2E2E2E2E2E2E2E2E2E2E2E2E2E2E2E2E2E2E2E2E2E2E2E2E2E2E2E2E2E2E2BEE2E2E2E2E2E2E2E2E2E2E2E2E2E2E2E2E2E2E2E2E2E2E2E2E2E2E2E2E2E2E2E2E2E2E2E2E2E2E2E2E2E2E2E2E2E2E2E2E2E2E2E2E2E2E2E2E2E2E2E2E2
310
E2E2E2E2E2E2E2E2E2E2E2E2E2E2E2E2E2E2E2E2E2E2E2E2E2E2E2E2E2E2E2E2E2E2E2E2E2E2BEE2E2E2BEBEBEBEBEBEBEBEE2BEE2E2E2E2E2E2E2E2E2E2E2E2E2E2E2E2E2E2E2E2E2E2E2E2E2E2E2E2E2E2E2E2E2E2E2E22D8383E2E2E28383E2E2E283E2E2E28383E2E2E283E2E2E28383E2E2E283E2E2E283832DDCDCDC
310
E2E2E2E2E2E2E2E2E2E2E2E2E2E2E2E2E2E2E2E2E2E2E2E2E2E2E2E2E2E2E2E2E2E2E2E2E2E2E2E2E2E2E2E2E2E2E2E2E2E2E2E2E2E2E2E2E2E2E2E2E2E2E2E2E2E2E2BEE2E2E2E2E2E2E2E2E2E2E2E2E2E2E2E2E2E2E2E2E2E2E2E2E2E2E2E2E2E2E2E2E2E2E2E2E2E2E2E2E2E2E2E2E2E2E2E2E2E2E2E2E2E2E2E2E2E2E2
310
E2E2E2E2E2E2E2E2E2E2E2E2E2E2E2E2E2E2E2E2E2E2E2E2E2E2E2E2E2E2E2E2E2E2E2E2E2E2E2E2BEE2E2E2BEBEBEBEBEBEBEBEE2BEE2E2E2E2E2E2E2E2E2E2E2E2E2E2E2E2E2E2E2E2E2E2E2E2E2E2E2E2E2E2E2E2E2E2E2E22D8383E2E2E28383E2E2E283E2E2E28383E2E2E283E2E2E28383E2E2E283E2DCE283832DE2
310
E2E2E2E2E2E2E2E2E2E2E2E2E2E2E2E2E2E2E2E2E2E2E2E2E2E2E2E2E2E2E2E2E2E2E2E2E2E2E2E2E2E2E2E2E2E2E2E2E2E2E2E2E2E2E2E2E2E2E2E2E2E2E2E2E2E2E2E2E2BEE2E2E2E2E2E2E2E2E2E2E2E2E2E2E2E2E2E2E2E2E2E2E2E2E2E2E2E2E2E2E2E2E2E2E2E2E2E2E2E2E2E2E2E2E2E2E2E2E2E2E2E2E2E2E2E2E2
310
E2E2E2E2E2E2E2E2E2E2E2E2E2E2E2E2E2E2E2E2E2E2E2E2E2E2E2E2E2E2E2E2E2E2E2E2E2E2E2E2E2E2BEE2E2E2BEBEBEBEBEBEBEBEE2BEE2E2E2E2E2E2E2E2E2E2E2E2E2E2E2E2E2E2E2E2E2E2E2E2E2E2E2E2E2E2E2E2E2E2E2E22D8383E2E2E28383E2E2E283E2E2E28383E2E2E283E2E2E28383E2E2E283DCDCDC8383
310
2DE2E2E2E2E2E2E2E2E2E2E2E2E2E2E2E2E2E2E2E2E2E2E2E2E2E2E2E2E2E2E2E2E2E2E2E2E2E2E2E2E2E2E2E2E2E2E2E2E2E2E2E2E2E2E2E2E2E2E2E2E2E2E2E2E2E2E2E2E2E2BEE2E2E2E2E2E2E2E2E2E2E2E2E2E2E2E2E2E2E2E2E2E2E2E2E2E2E2E2E2E2E2E2E2E2E2E2E2E2E2E2E2E2E2E2E2E2E2E2E2E2E2E2E2E2E2
310
E2E2E2E2E2E2E2E2E2E2E2E2E2E2E2E2E2E2E2E2E2E2E2E2E2E2E2E2E2E2E2E2E2E2E2E2E2E2E2E2E2E2E2E2BEE2E2E2BEBEBEBEBEBEBEBEE2BEE2E2E2E2E2E2E2E2E2E2E2E2E2E2E2E2E2E2E2E2E2E2E2E2E2E2E2E2E2E2E2E2E2E2E2E22D8383E2E2E28383E2E2E283E2E2E28383E2E2E283E2E2E28383E2E2E283E2E2E2
310
83832DE2E2E2E2E2E2E2E2E2E2E2E2E2E2E2E2E2DCDCE2E2DCDCE2DCDCE2E2DCDCDCDCDCE2DCDCDCDCDCDCE2E2E2E2E2E2E2E2E2E2E2E2E2E2E2E2E2E2E2E2E2E2E2E2E2E2E2E2E2E2BEE2E2E2E2E2E2E2E2E2E2E2E2E2E2E2E2E2E2E2E2E2E2E2E2E2E2E2E2E2E2E2E2E2E2E2E2E2E2E2E2E2E2E2E2E2E2E2E2E2E2E2E2E2
310
E2E2E2E2E2E2E2E2E2E2E2E2E2E2E2E2E2E2E2E2E2E2E2E2E2E2E2E2E2E2E2E2E2E2E2E2E2E2E2E2E2E2E2E2E2E2BEE2E2E2BEBEBEBEBEBEBEBEE2BEE2E2E2E2E2E2E2E2E2E2E2E2E2E2E2E2E2E2E2E2E2E2E2E2E2E2E2E2E2E2E2E2E2E2E2E2E28383E2E2E28383E2E2E283E2E2E28383E2E2E283E2E2E28383E2E2E283E2
310
E2E28383E2E2E2E2E2E2E2E2E2E2E2E2E2E2E2E2E2E2DCDCDCDCDCDCE2E2DCDCE2DCDCDCDCDCE2DCDCDCDCDCDCE2E2E2E2E2E2E2E2E2E2E2E2E2E2E2E2E2E2E2E2E2E2E2E2E2E2E2E2E2E2BEE2E2E2E2E2E2E2E2E2E2E2E2E2E2E2E2E2E2E2E2E2E2E2E2E2E2E2E2E2E2E2E2E2E2E2E2E2E2E2E2E2E2E2E2E2E2E2E2E2E2E2
310
E2E2E2E2E2E2E2E2E2E2E2E2E2E2E2E2E2E2E2E2E2E2E2E2E2E2E2E2E2E2E2E2E2E2E2E2E2E2E2E2E2E2E2E2E2E2E2E2BEE2E2E2BEBEBEBEBEBEBEBEE2BEE2E2E2E2E2E2E2E2E2E2E2E2E2E2E2E2E2E2E2E2E2E2E2E2E2E2E2E2E2E2E2E2E2E2E2E22D8383E2E2E28383E2E2E283E2E2E28383E2E2E283E2E2E28383E2E2E2
310
83E2E2E283832DE2E2E2E2E2E2E2E2E2E2E2E2E2E2E2E2E2DCDCDCDCDCDCDCDCDCDCDCE2DCDCDCDCDCDCDCDCDCE2E2E2E2E2E2E2E2E2E2E2E2E2E2E2E2E2E2E2E2E2E2E2E2E2E2E2E2E2E2E2E2BEE2E2E2E2E2E2E2E2E2E2E2E2E2E2E2E2E2E2E2E2E2E2E2E2E2E2E2E2E2E2E2E2E2E2E2E2E2E2E2E2E2E2E2E2E2E2E2E2E2
310
E2E2E2E2E2E2E2E2E2E2E2E2E2E2E2E2E2E2E2E2E2E2E2E2E2E2E2E2E2E2E2E2E2E2E2E2E2E2E2E2E2E2E2E2E2E2E2E2E2E2BEE2E2E2BEBEBEBEBEBEBEBEE2BEE2E2E2E2E2E2E2E2E2E2E2E2E2E2E2E2E2E2E2E2E2E2E2E2E2E2E2E2E2E2E2E2E2E2E2E22D8383E2E2E28383E2E2E283E2E2E28383E2E2E283E2E2E28383E2
310
E2E283E2E2E283832DE2E2E2E2E2E2E2E2E2DCDCDCDCDCDCDCE2DCDCDCDCDCDCDCDCDCDCDCE2DCDCDCDCDCDCDCDCDCDCE2E2E2E2E2E2E2E2E2E2E2E2E2E2E2E2E2E2E2E2E2E2E2E2E2E2E2E2E2E2E2BEE2E2E2E2E2E2E2E2E2E2E2E2E2E2E2E2E2E2E2E2E2E2E2E2E2E2E2E2E2E2E2E2E2E2E2E2E2E2E2E2E2E2E2E2E2E2E2
310
E2E2E2E2E2E2E2E2E2E2E2E2E2E2E2E2E2E2E2E2E2E2E2E2E2E2E2E2E2E2E2E2E2E2E2E2E2E2E2E2E2E2E2E2E2E2E2E2E2E2E2E2BEE2E2E2BEBEBEBEBEBEBEBEE2BEE2E2E2E2E2E2E2E2E2E2E2E2E2E2E2E2E2E2E2E2E2E2E2E2E2E2E2E2E2E2E2E2E2E2E2E22D8383E2E2E28383E2E2E283E2E2E28383E2E2E283E2E2E283
310
83E2E2E283E2E2E283832DE2E2E2E2E2E2E2DCDCE2E2E2E2E2E2E2E2DCDCDCDCDCDCDCDCDCDCDCE2DCDCDCDCDCDCDCDCDCDCE2E2E2E2E2E2E2E2E2E2E2E2E2E2E2E2E2E2E2E2E2E2E2E2E2E2E2E2E2E2E2BEE2E2E2E2E2E2E2E2E2E2E2E2E2E2E2E2E2E2E2E2E2E2E2E2E2E2E2E2E2E2E2E2E2E2E2E2E2E2E2E2E2E2E2E2E2
310
E2E2E2E2E2E2E2E2E2E2E2E2E2E2E2E2E2E2E2E2E2E2E2E2E2E2E2E2E2E2E2E2E2E2E2E2E2E2E2E2E2E2E2E2E2E2E2E2E2E2E2E2E2E2BEE2E2E2BEBEBEBEBEBEBEBEE2BEE2E2E2E2E2E2E2E2E2E2E2E2E2E2E2E2E2E2E2E2E2E2E2E2E2E2E2E2E2E2E2E2E2E2E2E22D8383E2E2E28383E2E2E283E2E2E28383E2E2E283E2E2
310
E28383E2E2E283E2E2E283832DE2E2E2E2E2DCDCE2E2E2E2E2E2E2E2E2E2E2E2E2E2E2E2E2E2E2E2E2E2E2E2E2E2E2E2E2E2E2E2E2E2E2E2E2E2E2E2E2E2E2E2E2E2E2E2E2E2E2E2E2E2E2E2E2E2E2E2E2E2E2BEE2E2E2E2E2E2E2E2E2E2E2E2E2E2E2E2E2E2E2E2E2E2E2E2E2E2E2E2E2E2E2E2E2E2E2E2E2E2E2E2E2E2E2
310
E2E2E2E2E2E2E2E2E2E2E2E2E2E2E2E2E2E2E2E2E2E2E2E2E2E2E2E2E2E2E2E2E2E2E2E2E2E2E2E2E2E2E2E2E2E2E2E2E2E2E2E2E2E2E2E2BEE2E2E2BEBEBEBEBEBEBEBEE2BEE2E2E2E2E2E2E2E2E2E2E2E2E2E2E2E2E2E2E2E2E2E2E2E2E2E2E2E2E2E2E2E2E2E2E2E22D8383E2E2E28383E2E2E283E2E2E28383E2E2E283
310
E2E2E28383E2E2E283E2E2E283832DE2E2E2DCDCE2E2E2E2E2E2E2E2E2E2E2E2E2E2E2E2E2E2E2E2E2E2E2E2E2E2E2E2E2E2E2E2E2E2E2E2E2E2E2E2E2E2E2E2E2E2E2E2E2E2E2E2E2E2E2E2E2E2E2E2E2E2E2E2E2BEE2E2E2E2E2E2E2E2E2E2E2E2E2E2E2E2E2E2E2E2E2E2E2E2E2E2E2E2E2E2E2E2E2E2E2E2E2E2E2E2E2
310
E2E2E2E2E2E2E2E2E2E2E2E2E2E2E2E2E2E2E2E2E2E2E2E2E2E2E2E2E2E2E2E2E2E2E2E2E2E2E2E2E2E2E2E2E2E2E2E2E2E2E2E2E2E2E2E2E2E2BEE2E2E2BEBEBEBEBEBEBEBEE2BEE2E2E2E2E2E2E2E2E2E2E2E2E2E2E2E2E2E2E2E2E2E2E2E2E2E2E2E2E2E2E2E2E2E2E2E22D8383E2E2E28383E2E2E283E2E2E28383E2E2
310
E283E2E2E28383E2E2E283E2E2E283832DE2DCDCE2E2E2E2E2E2E2E2E2E2E2E2E2E2E2E2E2E2E2E2E2E2E2E2E2E2E2E2E2E2E2E2E2E2E2E2E2E2E2E2E2E2E2E2E2E2E2E2E2E2E2E2E2E2E2E2E2E2E2E2E2E2E2E2E2E2E2BEE2E2E2E2E2E2E2E2E2E2E2E2E2E2E2E2E2E2E2E2E2E2E2E2E2E2E2E2E2E2E2E2E2E2E2E2E2E2E2
310
E2E2E2E2E2E2E2E2E2E2E2E2E2E2E2E2E2E2E2E2E2E2E2E2E2E2E2E2E2E2E2E2E2E2E2E2E2E2E2E2E2E2E2E2E2E2E2E2E2E2E2E2E2E2E2E2E2E2E2E2BEE2E2E2BEBEBEBEBEBEBEBEE2BEE2E2E2E2E2E2E2E2E2E2E2E2E2E2E2E2E2E2E2E2E2E2E2E2E2E2E2E2E2E2E2E2E2E2E2E22D8383E2E2E28383E2E2E283E2E2E28383
310
E2E2E283E2E2E28383E2E2E283E2E2E283832DDCE2E2E2E2E2E2E2E2E2E2E2E2E2E2E2E2E2E2E2E2E2E2E2E2E2E2E2E2E2E2E2E2E2E2E2E2E2E2E2E2E2E2E2E2E2E2E2E2E2E2E2E2E2E2E2E2E2E2E2E2E2E2E2E2E2E2E2E2E2BEE2E2E2E2E2E2E2E2E2E2E2E2E2E2E2E2E2E2E2E2E2E2E2E2E2E2E2E2E2E2E2E2E2E2E2E2E2
310
E2E2E2E2E2E2E2E2E2E2E2E2E2E2E2E2E2E2E2E2E2E2E2E2E2E2E2E2E2E2E2E2E2E2E2E2E2E2E2E2E2E2E2E2E2E2E2E2E2E2E2E2E2E2E2E2E2E2E2E2E2E2BEE2E2E2BEBEBEBEBEBEBEBEE2BEE2E2E2E2E2E2E2E2E2E2E2E2E2E2E2E2E2E2E2E2E2E2E2E2E2E2E2E2E2E2E2E2E2E2E2E22D8383E2E2E28383E2E2E283E2E2E2
310
8383E2E2E283E2E2E28383E2E2DC83DCDCDC83832DDCDCDCDCDCDCE2E2E2E2E2E2E2E2E2E2E2E2E2E2E2E2E2E2E2E2E2E2E2E2E2E2E2E2E2E2E2E2E2E2E2E2E2E2E2E2E2E2E2E2E2E2E2E2E2E2E2E2E2E2E2E2E2E2E2E2E2E2E2E2BEE2E2E2E2E2E2E2E2E2E2E2E2E2E2E2E2E2E2E2E2E2E2E2E2E2E2E2E2E2E2E2E2E2E2E2
310
E2E2E2E2E2E2E2E2E2E2E2E2E2E2E2E2E2E2E2E2E2E2E2E2E2E2E2E2E2E2E2E2E2E2E2E2E2E2E2E2E2E2E2E2E2E2E2E2E2E2E2E2E2E2E2E2E2E2E2E2E2E2E2E2BEE2E2E2BEBEBEBEBEBEBEBEE2BEE2E2E2E2E2E2E2E2E2E2E2E2E2E2E2E2E2E2E2E2E2E2E2E2E2E2E2E2E2E2E2E2E2E2E2E22D8383E2E2E28383E2E2E283E2
310
E2E28383E2E2E283E2E2E28383E2E2E283E2E2E283832DE2E2E2E2E2E2E2E2E2E2E2E2E2E2E2E2DCE2DCDCDCDCDCDCDCDCE2DCDCDCDCDCDCDCDCDCE2E2E2E2E2E2E2E2E2E2E2E2E2E2E2E2E2E2E2E2E2E2E2E2E2E2E2E2E2E2E2E2E2E2BEE2E2E2E2E2E2E2E2E2E2E2E2E2E2E2E2E2E2E2E2E2E2E2E2E2E2E2E2E2E2E2E2E2
310
E2E2E2E2E2E2E2E2E2E2E2E2E2E2E2E2E2E2E2E2E2E2E2E2E2E2E2E2E2E2E2E2E2E2E2E2E2E2E2E2E2E2E2E2E2E2E2E2E2E2E2E2E2E2E2E2E2E2E2E2E2E2E2E2E2E2BEE2E2E2BEBEBEBEBEBEBEBEE2BEE2E2E2E2E2E2E2E2E2E2E2E2E2E2E2E2E2E2E2E2E2E2E2E2E2E2E2E2E2E2E2E2E2E2E2E22D8383E2E2E28383E2E2E2
310
83E2E2E28383E2E2E283E2E2E28383E2E2E283E2E2E283832DE2E2E2E2E2E2E2E2E2E2E2E2E2E2E2E2DCDCDCDCDCDCDCDCDCDCE2DCDCDCDCDCDCDCDCDCE2E2E2E2E2E2E2E2E2E2E2E2E2E2E2E2E2E2E2E2E2E2E2E2E2E2E2E2E2E2E2E2E2E2BEE2E2E2E2E2E2E2E2E2E2E2E2E2E2E2E2E2E2E2E2E2E2E2E2E2E2E2E2E2E2E2
310
E2E2E2E2E2E2E2E2E2E2E2E2E2E2E2E2E2E2E2E2E2E2E2E2E2E2E2E2E2E2E2E2E2E2E2E2E2E2E2E2E2E2E2E2E2E2E2E2E2E2E2E2E2E2E2E2E2E2E2E2E2E2E2E2E2E2E2E2BEE2E2E2BEBEBEBEBEBEBEBEE2BEE2E2E2E2E2E2E2E2E2E2E2E2E2E2E2E2E2E2E2E2E2E2E2E2E2E2E2E2E2E2E2E2E2E2E2E2E28383E2E2E28383E2
310
E2E283E2E2E28383E2E2E283E2E2E28383E2E2E283E2E2E28383E2E2E2E2E2E2E2E2E2E2E2E2E2E2E2E2E2DCDCDCDCDCDCDCDCDCDCE2DCDCDCDCDCDCDCDCDCE2E2E2E2E2E2E2E2E2E2E2E2E2E2E2E2E2E2E2E2E2E2E2E2E2E2E2E2E2E2E2E2E2E2BEE2E2E2E2E2E2E2E2E2E2E2E2E2E2E2E2E2E2E2E2E2E2E2E2E2E2E2E2E2
310
E2E2E2E2E2E2E2E2E2E2E2E2E2E2E2E2E2E2E2E2E2E2E2E2E2E2E2E2E2E2E2E2E2E2E2E2E2E2E2E2E2E2E2E2E2E2E2E2E2E2E2E2E2E2E2E2E2E2E2E2E2E2E2E2E2E2E2E2E2E2BEE2E2E2BEBEBEBEBEBEBEBEE2BEE2E2E2E2E2E2E2E2E2E2E2E2E2E2E2E2E2E2E2E2E2E2E2E2E2E2E2E2E2E2E2E2E2E2E2E22D8383E2E2E283
310
83E2E2E283E2E2E28383E2E2E283E2E2E28383E2E2E283DCDCDC83832DDCDCDCDCDCDCDCDCDCDCDCDCDCDCDCDCDCDCDCDCDCDCDCDCDCDCDCDCDCDCDCDCDCDCDCDCDCE2E2E2E2E2E2E2E2E2E2E2E2E2E2E2E2E2E2E2E2E2E2E2E2E2E2E2E2E2E2E2E2E2BEE2E2E2E2E2E2E2E2E2E2E2E2E2E2E2E2E2E2E2E2E2E2E2E2E2E2E2
310
E2E2E2E2E2E2E2E2E2E2E2E2E2E2E2E2E2E2E2E2E2E2E2E2E2E2E2E2E2E2E2E2E2E2E2E2E2E2E2E2E2E2E2E2E2E2E2E2E2E2E2E2E2E2E2E2E2E2E2E2E2E2E2E2E2E2E2E2E2E2E2E2BEE2E2E2BEBEBEBEBEBEBEBEE2BEE2E2E2E2E2E2E2E2E2E2E2E2E2E2E2E2E2E2E2E2E2E2E2E2E2E2E2E2E2E2E2E2E2E2E2E22D8383E2E2
310
E28383E2E2E283E2E2E28383E2E2E283E2E2E28383E2E2E283DCE2E283832DE2E2E2E2E2E2E2E2E2E2E2E2E2E2E2E2DCDCDCDCDCDCDCDCDCDCDCDCDCDCDCDCDCDCDCDCDCE2E2E2E2E2E2E2E2E2E2E2E2E2E2E2E2E2E2E2E2E2E2E2E2E2E2E2E2E2E2E2E2E2BEE2E2E2E2E2E2E2E2E2E2E2E2E2E2E2E2E2E2E2E2E2E2E2E2E2
310
E2E2E2E2E2E2E2E2E2E2E2E2E2E2E2E2E2E2E2E2E2E2E2E2E2E2E2E2E2E2E2E2E2E2E2E2E2E2E2E2E2E2E2E2E2E2E2E2E2E2E2E2E2E2E2E2E2E2E2E2E2E2E2E2E2E2E2E2E2E2E2E2E2E2BEE2E2E2BEBEBEBEBEBEBEBEE2BEE2E2E2E2E2E2E2E2E2E2E2E2E2E2E2E2E2E2E2E2E2E2E2E2E2E2E2E2E2E2E2E2E2E2E2E22D8383
310
E2E2E28383E2E2E283E2E2E28383E2E2E283E2E2E28383E2E2E283E2E2E283832DE2E2E2E2E2E2E2E2E2E2E2E2E2E2E2E2E2E2E2E2E2E2E2E2E2E2E2E2E2E2E2E2E2E2E2E2E2E2E2E2E2E2E2E2E2E2E2E2E2E2E2E2E2E2E2E2E2E2E2E2E2E2E2E2E2E2E2E2E2E2BEE2E2E2E2E2E2E2E2E2E2E2E2E2E2E2E2E2E2E2E2E2E2E2
310
E2E2E2E2E2E2E2E2E2E2E2E2E2E2E2E2E2E2E2E2E2E2E2E2E2E2E2E2E2E2E2E2E2E2E2E2E2E2E2E2E2E2E2E2E2E2E2E2E2E2E2E2E2E2E2E2E2E2E2E2E2E2E2E2E2E2E2E2E2E2E2E2E2E2E2E2BEE2E2E2BEBEBEBEBEBEBEBEE2BEE2E2E2E2E2E2E2E2E2E2E2E2E2E2E2E2E2E2E2E2E2E2E2E2E2E2E2E2E2E2E2E2E2E2E2E22D
310
8383E2E2E28383E2E28383E2E2E28383E2E28383E2E2E28383E2E28383E2E2E283832DE2E2E2E2E2E2E2E2E2E2E2E2E2E2E2E2E2E2E2E2E2E2E2E2E2E2E2E2E2E2E2E2E2E2E2E2E2E2E2E2E2E2E2E2E2E2E2E2E2E2E2E2E2E2E2E2E2E2E2E2E2E2E2E2E2E2E2E2E2E2BEE2E2E2E2E2E2E2E2E2E2E2E2E2E2E2E2E2E2E2E2E2
310
E2E2E2E2E2E2E2E2E2E2E2E2E2E2E2E2E2E2E2E2E2E2E2E2E2E2E2E2E2E2E2E2E2E2E2E2E2E2E2E2E2E2E2E2E2E2E2E2E2E2E2E2E2E2E2E2E2E2E2E2E2E2E2E2E2E2E2E2E2E2E2E2E2E2E2E2E2E2BEE2E2E2BEBEBEBEBEBEBEBEE2BEE2E2E2E2E2E2E2E2E2E2E2E2E2E2E2E2E2E2E2E2E2E2E2E2E2E2E2E2E2E2E2E2E2E2E2
310
E22D8383E2E2E28383E2E28383E2E2E28383E2E28383E2E2E28383E2E28383E2E2E283832DE2E2E2E2E2E2E2E2E2E2E2E2E2E2E2E2E2E2E2E2E2E2E2E2E2E2E2E2E2E2E2E2E2E2E2E2E2E2E2E2E2E2E2E2E2E2E2E2E2E2E2E2E2E2E2E2E2E2E2E2E2E2E2E2E2E2E2E2E2E2BEE2E2E2E2E2E2E2E2E2E2E2E2E2E2E2E2E2E2E2
310
E2E2E2E2E2E2E2E2E2E2E2E2E2E2E2E2E2E2E2E2E2E2E2E2E2E2E2E2E2E2E2E2E2E2E2E2E2E2E2E2E2E2E2E2E2E2E2E2E2E2E2E2E2E2E2E2E2E2E2E2E2E2E2E2E2E2E2E2E2E2E2E2E2E2E2E2E2E2E2E2BEE2E2E2BEBEBEBEBEBEBEBEE2BEE2E2E2E2E2E2E2E2E2E2E2E2E2E2E2E2E2E2E2E2E2E2E2E2E2E2E2E2E2E2E2E2E2
310
E2E2E22D8383E2E2E28383E2E28383E2E2E28383E2E28383E2E2E28383E2DC8383E2E2E283832DE2E2E2E2E2E2E2E2E2E2E2E2E2E2E2E2E2E2E2E2E2E2E2E2E2E2E2E2E2E2E2E2E2E2E2E2E2E2E2E2E2E2E2E2E2E2E2E2E2E2E2E2E2E2E2E2E2E2E2E2E2E2E2E2E2E2E2E2E2E2BEE2E2E2E2E2E2E2E2E2E2E2E2E2E2E2E2E2
310
E2E2E2E2E2E2E2E2E2E2E2E2E2E2E2E2E2E2E2E2E2E2E2E2E2E2E2E2E2E2E2E2E2E2E2E2E2E2E2E2E2E2E2E2E2E2E2E2E2E2E2E2E2E2E2E2E2E2E2E2E2E2E2E2E2E2E2E2E2E2E2E2E2E2E2E2E2E2E2E2E2E2BEE2E2E2BEBEBEBEBEBEBEBEE2BEE2E2E2E2E2E2E2E2E2E2E2E2E2E2E2E2E2E2E2E2E2E2E2E2E2E2E2E2E2E2E2
310
E2E2E2E2E22D8383E2E2E28383E2E28383E2E2E28383E2E28383E2E2E28383DCDC8383E2E2E283832DE2E2E2E2E2E2E2E2E2E2E2E2E2E2E2E2E2E2E2E2E2E2E2E2E2E2E2E2E2E2E2E2E2E2E2E2E2E2E2E2E2E2E2E2E2E2E2E2E2E2E2E2E2E2E2E2E2E2E2E2E2E2E2E2E2E2E2E2E2E2BEE2E2E2E2E2E2E2E2E2E2E2E2E2E2E2
310
E2E2E2E2E2E2E2E2E2E2E2E2E2E2E2E2E2E2E2E2E2E2E2E2E2E2E2E2E2E2E2E2E2E2E2E2E2E2E2E2E2E2E2E2E2E2E2E2E2E2E2E2E2E2E2E2E2E2E2E2E2E2E2E2E2E2E2E2E2E2E2E2E2E2E2E2E2E2E2E2E2E2E2E2BEE2E2E2BEBEBEBEBEBEBEBEE2BEE2E2E2E2E2E2E2E2E2E2E2E2E2E2E2E2E2E2E2E2E2E2E2E2E2E2E2E2E2
310
E2E2E2E2E2E2E22D8383E2E2E28383E2E28383E2E2E28383E2E28383E2E2E283DCDCDCDC83E2E2E283832DE2E2E2E2E2E2E2E2E2E2E2E2E2E2E2E2E2E2E2E2E2E2E2E2E2E2E2E2E2E2E2E2E2E2E2E2E2E2E2E2E2E2E2E2E2E2E2E2E2E2E2E2E2E2E2E2E2E2E2E2E2E2E2E2E2E2E2E2E2E2BEE2E2E2E2E2E2E2E2E2E2E2E2E2
310
E2E2E2E2E2E2E2E2E2E2E2E2E2E2E2E2E2E2E2E2E2E2E2E2E2E2E2E2E2E2E2E2E2E2E2E2E2E2E2E2E2E2E2E2E2E2E2E2E2E2E2E2E2E2E2E2E2E2E2E2E2E2E2E2E2E2E2E2E2E2E2E2E2E2E2E2E2E2E2E2E2E2E2E2E2E2BEE2E2E2BEBEBEBEBEBEBEBEE2BEE2E2E2E2E2E2E2E2E2E2E2E2E2E2E2E2E2E2E2E2E2E2E2E2E2E2E2
310
E2E2E2E2E2E2E2E2E22D8383E2E2E28383E2E28383E2E2E28383E2E28383E2E2E28383E2E28383E2E2E283832DE2E2E2DCDCDCDCDCDCDCDCDCDCDCDCDCE2DCDCDCDCE2DCDCDCE2DCDCDCDCDCE2DCDCDCDCDCE2DCDCE2DCDCDCDCDCDCDCDCE2E2E2E2E2E2E2E2E2E2E2E2E2E2E2E2E2E2E2E2E2BEE2E2E2E2E2E2E2E2E2E2E2
310
E2E2E2E2E2E2E2E2E2E2E2E2E2E2E2E2E2E2E2E2E2E2E2E2E2E2E2E2E2E2E2E2E2E2E2E2E2E2E2E2E2E2E2E2E2E2E2E2E2E2E2E2E2E2E2E2E2E2E2E2E2E2E2E2E2E2E2E2E2E2E2E2E2E2E2E2E2E2E2E2E2E2E2E2E2E2E2E2BEE2E2E2BEBEBEBEBEBEBEBEE2BEE2E2E2E2E2E2E2E2E2E2E2E2E2E2E2E2E2E2E2E2E2E2E2E2E2
310
E2E2E2E2E2E2E2E2E2E2E22D8383E2E2E28383E2E28383E2E2E28383E2E28383E2E2E28383E2E28383E2E2E283832DE2DCDCE2E2E2E2E2E2E2E2E2E2E2E2E2E2DCDCDCDCE2DCDCDCE2DCDCDCDCDCDCDCDCDCDCDCDCDCDCE2DCDCDCDCDCDCDCDCE2E2E2E2E2E2E2E2E2E2E2E2E2E2E2E2E2E2E2E2E2BEE2E2E2E2E2E2E2E2E2
310
E2E2E2E2E2E2E2E2E2E2E2E2E2E2E2E2E2E2E2E2E2E2E2E2E2E2E2E2E2E2E2E2E2E2E2E2E2E2E2E2E2E2E2E2E2E2E2E2E2E2E2E2E2E2E2E2E2E2E2E2E2E2E2E2E2E2E2E2E2E2E2E2E2E2E2E2E2E2E2E2E2E2E2E2E2E2E2E2E2E2BEE2E2E2BEBEBEBEBEBEBEBEE2BEE2E2E2E2E2E2E2E2E2E2E2E2E2E2E2E2E2E2E2E2E2E2E2
310
E2E2E2E2E2E2E2E2E2E2E2E2E2E28383E2E2E28383E2E28383E2E2E28383E2E28383E2E2E28383E2E28383E2E2E28383DCDCE2E2E2E2E2E2E2E2E2E2E2E2E2E2E2E2E2E2E2E2E2E2E2E2E2E2E2E2E2E2E2E2E2E2E2E2E2E2E2E2E2E2E2E2E2E2E2E2E2E2E2E2E2E2E2E2E2E2E2E2E2E2E2E2E2E2E2E2E2BEE2E2E2E2E2E2E2
310
E2E2E2E2E2E2E2E2E2E2E2E2E2E2E2E2E2E2E2E2E2E2E2E2E2E2E2E2E2E2E2E2E2E2E2E2E2E2E2E2E2E2E2E2E2E2E2E2E2E2E2E2E2E2E2E2E2E2E2E2E2E2E2E2E2E2E2E2E2E2E2E2E2E2E2E2E2E2E2E2E2E2E2E2E2E2E2E2E2E2E2E2BEE2E2E2BEBEBEBEBEBEBEBEE2BEE2E2E2E2E2E2E2E2E2E2E2E2E2E2E2E2E2E2E2E2E2
310
E2E2E2E2E2E2E2E2E2E2E2E2E2E2E22D8383E2E2E28383E2E28383E2E2E28383E2E28383E2E2E28383E2E28383E2E2E2DCDC2DE2E2E2E2E2E2E2E2E2E2E2E2E2E2E2E2E2E2E2E2E2E2E2E2E2E2E2E2E2E2E2E2E2E2E2E2E2E2E2E2E2E2E2E2E2E2E2E2E2E2E2E2E2E2E2E2E2E2E2E2E2E2E2E2E2E2E2E2E2E2BEE2E2E2E2E2
310
E2E2E2E2E2E2E2E2E2E2E2E2E2E2E2E2E2E2E2E2E2E2E2E2E2E2E2E2E2E2E2E2E2E2E2E2E2E2E2E2E2E2E2E2E2E2E2E2E2E2E2E2E2E2E2E2E2E2E2E2E2E2E2E2E2E2E2E2E2E2E2E2E2E2E2E2E2E2E2E2E2E2E2E2E2E2E2E2E2E2E2E2E2E2BEE2E2E2BEBEBEBEBEBEBEBEE2BEE2E2E2E2E2E2E2E2E2E2E2E2E2E2E2E2E2E2E2
310
E2E2E2E2E2E2E2E2E2E2E2E2E2E2E2E2E22D8383E2E2E28383E2E28383E2E2E28383E2E28383E2E2E28383E2E28383E2DCDC83832DE2E2E2E2E2E2E2E2E2E2E2E2E2E2E2E2E2E2E2E2E2E2E2E2E2E2E2E2E2E2E2E2E2E2E2E2E2E2E2E2E2E2E2E2E2E2E2E2E2E2E2E2E2E2E2E2E2E2E2E2E2E2E2E2E2E2E2E2E2E2BEE2E2E2
310
E2E2E2E2E2E2E2E2E2E2E2E2E2E2E2E2E2E2E2E2E2E2E2E2E2E2E2E2E2E2E2E2E2E2E2E2E2E2E2E2E2E2E2E2E2E2E2E2E2E2E2E2E2E2E2E2E2E2E2E2E2E2E2E2E2E2E2E2E2E2E2E2E2E2E2E2E2E2E2E2E2E2E2E2E2E2E2E2E2E2E2E2E2E2E2E2BEE2E2E2BEBEBEBEBEBEBEBEE2BEE2E2E2E2E2E2E2E2E2E2E2E2E2E2E2E2E2
310
E2E2E2E2E2E2E2E2E2E2E2E2E2E2E2E2E2E2E22D8383E2E2E28383E2E28383E2E2E28383E2E28383E2E2E28383E2E28383DCE2E283832DE2E2E2E2E2E2E2E2E2E2E2E2E2E2E2E2E2E2E2E2E2E2E2E2E2E2E2E2E2E2E2E2E2E2E2E2E2E2E2E2E2E2E2E2E2E2E2E2E2E2E2E2E2E2E2E2E2E2E2E2E2E2E2E2E2E2E2E2E2E2BEE2
310
E2E2E2E2E2E2E2E2E2E2E2E2E2E2E2E2E2E2E2E2E2E2E2E2E2E2E2E2E2E2E2E2E2E2E2E2E2E2E2E2E2E2E2E2E2E2E2E2E2E2E2E2E2E2E2E2E2E2E2E2E2E2E2E2E2E2E2E2E2E2E2E2E2E2E2E2E2E2E2E2E2E2E2E2E2E2E2E2E2E2E2E2E2E2E2E2E2E2BEE2E2E2BEBEBEBEBEBEBEBEE2BEE2E2E2E2E2E2E2E2E2E2E2E2E2E2E2
310
E2E2E2E2E2E2E2E2E2E2E2E2E2E2E2E2E2E2E2E2E22D8383E2E2E28383E2E28383E2E2E28383E2E28383E2E2E28383E2E2DCDCE2E2E283832DE2E2E2E2E2E2E2E2E2E2E2E2E2E2E2E2E2E2E2E2E2E2E2E2E2E2E2E2E2E2E2E2E2E2E2E2E2E2E2E2E2E2E2E2E2E2E2E2E2E2E2E2E2E2E2E2E2E2E2E2E2E2E2E2E2E2E2E2E2E2
310
BEE2E2E2E2E2E2E2E2E2E2E2E2E2E2E2E2E2E2E2E2E2E2E2E2E2E2E2E2E2E2E2E2E2E2E2E2E2E2E2E2E2E2E2E2E2E2E2E2E2E2E2E2E2E2E2E2E2E2E2E2E2E2E2E2E2E2E2E2E2E2E2E2E2E2E2E2E2E2E2E2E2E2E2E2E2E2E2E2E2E2E2E2E2E2E2E2E2E2E2BEE2E2E2BEBEBEBEBEBEBEBEE2BEE2E2E2E2E2E2E2E2E2E2E2E2E2
310
E2E2E2E2E2E2E2E2E2E2E2E2E2E2E2E2E2E2E2E2E2E2E22D8383E2E2E28383E2E28383E2E2E28383E2E28383E2E2E28383DCDC8383E2E2E283832DE2E2E2E2E2E2E2E2E2E2E2E2E2E2E2E2E2DCDCDCDCDCE2DCDCDCDCDCDCDCDCDCE2DCDCDCDCE2DCDCDCDCE2E2E2E2E2E2E2E2E2E2E2E2E2E2E2E2E2E2E2E2E2E2E2E2E2E2
310
E2E2BEE2E2E2E2E2E2E2E2E2E2E2E2E2E2E2E2E2E2E2E2E2E2E2E2E2E2E2E2E2E2E2E2E2E2E2E2E2E2E2E2E2E2E2E2E2E2E2E2E2E2E2E2E2E2E2E2E2E2E2E2E2E2E2E2E2E2E2E2E2E2E2E2E2E2E2E2E2E2E2E2E2E2E2E2E2E2E2E2E2E2E2E2E2E2E2E2E2E2E2BEE2E2E2BEBEBEBEBEBEBEBEE2BEE2E2E2E2E2E2E2E2E2E2E2
310
E2E2E2E2E2E2E2E2E2E2E2E2E2E2E2E2E2E2E2E2E2E2E2E2E22D8383E2E2E28383E2E28383E2E2E28383E2E28383E2E2E2DCDCE2E28383E2E2E283832DE2E2E2E2E2E2E2E2E2E2E2E2E2E2E2E2E2DCDCDCE2DCE2DCDCDCDCDCDCDCDCDCE2DCDCDCDCE2DCDCDCDCE2E2E2E2E2E2E2E2E2E2E2E2E2E2E2E2E2E2E2E2E2E2E2E2
310
E2E2E2E2BEE2E2E2E2E2E2E2E2E2E2E2E2E2E2E2E2E2E2E2E2E2E2E2E2E2E2E2E2E2E2E2E2E2E2E2E2E2E2E2E2E2E2E2E2E2E2E2E2E2E2E2E2E2E2E2E2E2E2E2E2E2E2E2E2E2E2E2E2E2E2E2E2E2E2E2E2E2E2E2E2E2E2E2E2E2E2E2E2E2E2E2E2E2E2E2E2E2E2E2BEE2E2E2BEBEBEBEBEBEBEBEE2BEE2E2E2E2E2E2E2E2E2
310
E2E2E2E2E2E2E2E2E2E2E2E2E2E2E2E2E2E2E2E2E2E2E2E2E2E2E22D8383E2E2E28383E2E28383E2E2E28383E2E28383E2E2DC8383E2E28383E2E2E283832DE2E2E2E2E2E2E2E2E2E2E2E2E2E2E2E2E2DCDCDCDCDCDCDCDCDCDCDCDCDCDCDCDCDCDCDCDCDCDCDCDCDCDCDCDCDCDCE2E2E2E2E2E2E2E2E2E2E2E2E2E2E2E2E2
310
E2E2E2E2E2E2BEE2E2E2E2E2E2E2E2E2E2E2E2E2E2E2E2E2E2E2E2E2E2E2E2E2E2E2E2E2E2E2E2E2E2E2E2E2E2E2E2E2E2E2E2E2E2E2E2E2E2E2E2E2E2E2E2E2E2E2E2E2E2E2E2E2E2E2E2E2E2E2E2E2E2E2E2E2E2E2E2E2E2E2E2E2E2E2E2E2E2E2E2E2E2E2E2E2E2E2BEE2E2E2BEBEBEBEBEBEBEBEE2BEE2E2E2E2E2E2E2
310
E2E2E2E2E2E2E2E2E2E2E2E2E2E2E2E2E2E2E2E2E2E2E2E2E2E2E2E2E22D8383E2E2E28383E2E28383E2E2E28383E2E28383DCDCE28383E2E28383E2E2E283832DE2E2DCDCDCDCDCDCDCDCDCDCDCDCDCDCE2DCDCDCDCDCDCDCDCDCDCDCDCDCDCDCDCDCE2DCDCDCDCDCDCDCDCDCDCDCDCE2E2E2E2E2E2E2E2E2E2E2E2E2E2E2
310
E2E2E2E2E2E2E2E2BEE2E2E2E2E2E2E2E2E2E2E2E2E2E2E2E2E2E2E2E2E2E2E2E2E2E2E2E2E2E2E2E2E2E2E2E2E2E2E2E2E2E2E2E2E2E2E2E2E2E2E2E2E2E2E2E2E2E2E2E2E2E2E2E2E2E2E2E2E2E2E2E2E2E2E2E2E2E2E2E2E2E2E2E2E2E2E2E2E2E2E2E2E2E2E2E2E2E2E2BEE2E2E2BEBEBEBEBEBEBEBEE2BEE2E2E2E2E2
310
E2E2E2E2E2E2E2E2E2E2E2E2E2E2E2E2E2E2E2E2E2E2E2E2E2E2E2E2E2E2E22D8383E2E2E28383E2E28383E2E2E28383E2E2DCDCE2E2E28383E2E28383E2E2E283832DDCDCE2E2E2E2E2E2E2E2E2E2E2E2E2E2E2DCDCE2DCDCDCE2E2E2E2DCDCDCDCDCDCDCE2DCDCDCDCDCDCDCDCDCDCDCDCE2E2E2E2E2E2E2E2E2E2E2E2E2
310
E2E2E2E2E2E2E2E2E2E2BEE2E2E2E2E2E2E2E2E2E2E2E2E2E2E2E2E2E2E2E2E2E2E2E2E2E2E2E2E2E2E2E2E2E2E2E2E2E2E2E2E2E2E2E2E2E2E2E2E2E2E2E2E2E2E2E2E2E2E2E2E2E2E2E2E2E2E2E2E2E2E2E2E2E2E2E2E2E2E2E2E2E2E2E2E2E2E2E2E2E2E2E2E2E2E2E2E2E2E2BEE2E2E2BEBEBEBEBEBEBEBEE2BEE2E2E2
310
E2E2E2E2E2E2E2E2E2E2E2E2E2E2E2E2E2E2E2E2E2E2E2E2E2E2E2E2E2E2E2E2E22D8383E2E2E28383E2E28383E2E2E28383DCDC8383E2E2E28383E2E28383E2E2DC83832DE2E2E2E2E2E2E2E2E2E2E2E2E2E2E2E2E2E2E2E2E2E2E2E2E2E2E2E2E2E2E2E2E2E2E2E2E2E2E2E2E2E2E2E2E2E2E2E2E2E2E2E2E2E2E2E2E2E2
310
E2E2E2E2E2E2E2E2E2E2E2E2BEE2E2E2E2E2E2E2E2E2E2E2E2E2E2E2E2E2E2E2E2E2E2E2E2E2E2E2E2E2E2E2E2E2E2E2E2E2E2E2E2E2E2E2E2E2E2E2E2E2E2E2E2E2E2E2E2E2E2E2E2E2E2E2E2E2E2E2E2E2E2E2E2E2E2E2E2E2E2E2E2E2E2E2E2E2E2E2E2E2E2E2E2E2E2E2E2E2E2E2BEE2E2E2BEBEBEBEBEBEBEBEE2BEE2
310
E2E2E2E2E2E2E2E2E2E2E2E2E2E2E2E2E2E2E2E2E2E2E2E2E2E2E2E2E2E2E2E2E2E2E2E28383E2E2E28383E2E28383E2E2DCDCDCE2E28383E2E2E28383E2E28383DCDCE28383E2E2E2E2E2E2E2E2E2E2E2E2E2E2E2E2E2E2E2E2E2E2E2E2E2E2E2E2E2E2E2E2E2E2E2E2E2E2E2E2E2E2E2E2E2E2E2E2E2E2E2E2E2E2E2E2E2
310
E2E2E2E2E2E2E2E2E2E2E2E2E2E2BEE2E2E2E2E2E2E2E2E2E2E2E2E2E2E2E2E2E2E2E2E2E2E2E2E2E2E2E2E2E2E2E2E2E2E2E2E2E2E2E2E2E2E2E2E2E2E2E2E2E2E2E2E2E2E2E2E2E2E2E2E2E2E2E2E2E2E2E2E2E2E2E2E2E2E2E2E2E2E2E2E2E2E2E2E2E2E2E2E2E2E2E2E2E2E2E2E2E2E2BEE2E2E2BEBEBEBEBEBEBEBEE2
310
BEE2E2E2E2E2E2E2E2E2E2E2E2E2E2E2E2E2E2E2E2E2E2E2E2E2E2E2E2E2E2E2E2E2E2E2E22D8383E2E2E28383E2E28383E2E2DC8383DCDC8383E2E2E28383DCDC8383E2E2E283832DE2E2E2E2E2E2E2E2E2E2E2E2E2E2E2E2E2E2E2E2E2E2E2E2E2E2E2E2E2E2E2E2E2E2E2E2E2E2E2E2E2E2E2E2E2E2E2E2E2E2E2E2E2E2
310
E2E2E2E2E2E2E2E2E2E2E2E2E2E2E2E2BEE2E2E2E2E2E2E2E2E2E2E2E2E2E2E2E2E2E2E2E2E2E2E2E2E2E2E2E2E2E2E2E2E2E2E2E2E2E2E2E2E2E2E2E2E2E2E2E2E2E2E2E2E2E2E2E2E2E2E2E2E2E2E2E2E2E2E2E2E2E2E2E2E2E2E2E2E2E2E2E2E2E2E2E2E2E2E2E2E2E2E2E2E2E2E2E2E2E2E2BEE2E2E2BEBEBEBEBEBEBE
310
BEE2BEE2E2E2E2E2E2E2E2E2E2E2E2E2E2E2E2E2E2E2E2E2E2E2E2E2E2E2E2E2E2E2E2E2E2E2E22D83832D2D2D83832D2D83832DDC2D8383E2E283832D2D2D83832D2D83832D2D2D83832DE2E2E2E2E2E2E2E2E2E2E2E2E2E2E2E2E2DCDCDCDCDCE2DCDCDCDCDCDCE2DCDCDCDCDCE2DCDCDCDCE2DCE2DCDCE2E2E2E2E2E2E2
310
E2E2E2E2E2E2E2E2E2E2E2E2E2E2E2E2E2E2BEE2E2E2E2E2E2E2E2E2E2E2E2E2E2E2E2E2E2E2E2E2E2E2E2E2E2E2E2E2E2E2E2E2E2E2E2E2E2E2E2E2E2E2E2E2E2E2E2E2E2E2E2E2E2E2E2E2E2E2E2E2E2E2E2E2E2E2E2E2E2E2E2E2E2E2E2E2E2E2E2E2E2E2E2E2E2E2E2E2E2E2E2E2E2E2E2E2E2E2BEE2E2E2BEBEBEBEBE
310
BEBEBEE2BEE2E2E2E2E2E2E2E2E2E2E2E2E2E2E2E2E2E2E2E2E2E2E2E2E2E2E2E2E2E2E2E2E2E2E2E22D2D2D2D2D2D2D2D2D2D2D2D2D2D2D2D2D2D2D2D2D2D2D2D2D2D2D2D2D2D2D2D2D2D2D2DE2E2E2E2E2E2E2E2E2E2E2E2E2E2E2E2E2DCDCDCDCDCE2DCDCDCDCDCDCDCDCDCDCDCDCE2DCDCDCDCE2DCDCDCDCDCE2E2E2E2
310
E2E2E2E2E2E2E2E2E2E2E2E2E2E2E2E2E2E2E2E2BEE2E2E2E2E2E2E2E2E2E2E2E2E2E2E2E2E2E2E2E2E2E2E2E2E2E2E2E2E2E2E2E2E2E2E2E2E2E2E2E2E2E2E2E2E2E2E2E2E2E2E2E2E2E2E2E2E2E2E2E2E2E2E2E2E2E2E2E2E2E2E2E2E2E2E2E2E2E2E2E2E2E2E2E2E2E2E2E2E2E2E2E2E2E2E2E2E2E2E2BEE2E2E2BEBEBE
310
BEBEBEBEBEE2BEE2E2E2E2E2E2E2E2E2E2E2E2E2E2E2E2E2E2E2E2E2E2E2E2E2E2E2E2E2E2E2E2E2E2E2E22D2D2D2DE22D2D2D2DE22D2D2D2D2DE22D2D2D2DE22D2D2D2D2DE22D2D2D2D2D2D2D2D2DE2E2E2E2E2E2E2E2E2E2E2E2E2E2E2E2E2DCDCDCDCDCDCDCDCE2DCDCDCDCDCDCDCDCDCE2DCDCDCDCDCDCE2E2E2E2E2E2
310
E2E2E2E2E2E2E2E2E2E2E2E2E2E2E2E2E2E2E2E2E2E2BEE2E2E2E2E2E2E2E2E2E2E2E2E2E2E2E2E2E2E2E2E2E2E2E2E2E2E2E2E2E2E2E2E2E2E2E2E2E2E2E2E2E2E2E2E2E2E2E2E2E2E2E2E2E2E2E2E2E2E2E2E2E2E2E2E2E2E2E2E2E2E2E2E2E2E2E2E2E2E2E2E2E2E2E2E2E2E2E2E2E2E2E2E2E2E2E2E2E2E2BEE2E2E2BE
310
BEBEBEBEBEBEBEE2BEE2E2E2E2E2E2E2E2E2E2E2E2E2E2E2E2E2E2E2E2E2E2E2E2E2E2E2E2E2E2E2E2E2E2E2E2E2E2E2E2E2E2E2E2E2E2E2E2E2E22D2D2D2D2D2D2D2DE2E2E2E2E2E2E2E2E2E2E2E2E2E2E2E2E2E2E2E2E2E2E2DCDCDCDCDCDCDCE2DCDCDCDCDCDCDCDCE2DCDCDCDCDCDCDCDCDCE2DCDCDCE2DCDCE2E2E2E2
310
E2E2E2E2E2E2E2E2E2E2E2E2E2E2E2E2E2E2E2E2E2E2E2E2BEE2E2E2E2E2E2E2E2E2E2E2E2E2E2E2E2E2E2E2E2E2E2E2E2E2E2E2E2E2E2E2E2E2E2E2E2E2E2E2E2E2E2E2E2E2E2E2E2E2E2E2E2E2E2E2E2E2E2E2E2E2E2E2E2E2E2E2E2E2E2E2E2E2E2E2E2E2E2E2E2E2E2E2E2E2E2E2E2E2E2E2E2E2E2E2E2E2E2E2BEE2E2
310
E2BEBEBEBEBEBEBEBEE2BEE2E2E2E2E2E2E2E2E2E2E2E2E2E2E2E2E2E2E2E2E2E2E2E2E2E2E2E2E2E2E2E2E2E2E2E2E2E2E2E2E2E2E2E2E2E2E2E2E2E22D2DE2E2E2E22D2DE2E2E2E2E2E2E2E2E2E2E2E2E2E2E2E2E2E2E2DCDCDCDCE2E2E2E2E2E2E2E2DCDCDCDCDCDCDCDCE2DCDCDCDCDCDCDCDCDCE2DCDCDCDCDCDCE2E2
310
E2E2E2E2E2E2E2E2E2E2E2E2E2E2E2E2E2E2E2E2E2E2E2E2E2E2BEE2E2E2E2E2E2E2E2E2E2E2E2E2E2E2E2E2E2E2E2E2E2E2E2E2E2E2E2E2E2E2E2E2E2E2E2E2E2E2E2E2E2E2E2E2E2E2E2E2E2E2E2E2E2E2E2E2E2E2E2E2E2E2E2E2E2E2E2E2E2E2E2E2E2E2E2E2E2E2E2E2E2E2E2E2E2E2E2E2E2E2E2E2E2E2E2E2E2E2BE
310
E2E2E2BEBEBEBEBEBEBEBEE2BEE2E2E2E2E2E2E2E2E2E2E2E2E2E2E2E2E2E2E2E2E2E2E2E2E2E2E2E2E2E2E2E2E2E2E2E2E2E2E2E2E2E2E2E2E2E2E2E2E2E22D2DE2E2E2E22D2DE2E2E2E2E2E2E2E2E2E2E2E2E2E2E2DCDCDCDCE2E2E2E2E2E2E2E2E2E2E2E2E2E2E2E2E2E2E2E2E2E2E2E2E2E2E2E2E2E2E2E2E2E2E2E2E2
310
E2E2E2E2E2E2E2E2E2E2E2E2E2E2E2E2E2E2E2E2E2E2E2E2E2E2E2E2BEE2E2E2E2E2E2E2E2E2E2E2E2E2E2E2E2E2E2E2E2E2E2E2E2E2E2E2E2E2E2E2E2E2E2E2E2E2E2E2E2E2E2E2E2E2E2E2E2E2E2E2E2E2E2E2E2E2E2E2E2E2E2E2E2E2E2E2E2E2E2E2E2E2E2E2E2E2E2E2E2E2E2E2E2E2E2E2E2E2E2E2E2E2E2E2E2E2E2
310
E2BEE2E2E2BEBEBEBEBEBEBEBEE2BEE2E2E2E2E2E2E2E2E2E2E2E2E2E2E2E2E2E2E2E2E2E2E2E2E2E2E2E2E2E2E2E2E2E2E2E2E2E2E2E2E2E2E2E2E2E2E2E2E2E22D2DE2E2E2E22D2DE2E2E2E2E2E2E2E2E2E2E2DCDCDCDCE2E2E2E2E2E2E2E2E2E2E2E2E2E2E2E2E2E2E2E2E2E2E2E2E2E2E2E2E2E2E2E2E2E2E2E2E2E2E2
310
E2E2E2E2E2E2E2E2E2E2E2E2E2E2E2E2E2E2E2E2E2E2E2E2E2E2E2E2E2E2BEE2E2E2E2E2E2E2E2E2E2E2E2E2E2E2E2E2E2E2E2E2E2E2E2E2E2E2E2E2E2E2E2E2E2E2E2E2E2E2E2E2E2E2E2E2E2E2E2E2E2E2E2E2E2E2E2E2E2E2E2E2E2E2E2E2E2E2E2E2E2E2E2E2E2E2E2E2E2E2E2E2E2E2E2E2E2E2E2E2E2E2E2E2E2E2E2
310
E2E2E2BEE2E2E2BEBEBEBEBEBEBEBEE2BEE2E2E2E2E2E2E2E2E2E2E2E2E2E2E2E2E2E2E2E2E2E2E2E2E2E2E2E2E2E2E2E2E2E2E2E2E2E2E2E2E2E2E2E2E2E2E2E2E2E22D2DE2E2E2E22D2DE2E2E2E2E2E2E2DCDCDCDCE2E2E2E2E2E2E2E2E2E2E2E2E2E2E2E2E2E2E2E2E2E2E2E2E2E2E2E2E2E2E2E2E2E2E2E2E2E2E2E2E2
310
E2E2E2E2E2E2E2E2E2E2E2E2E2E2E2E2E2E2E2E2E2E2E2E2E2E2E2E2E2E2E2E2BEE2E2E2E2E2E2E2E2E2E2E2E2E2E2E2E2E2E2E2E2E2E2E2E2E2E2E2E2E2E2E2E2E2E2E2E2E2E2E2E2E2E2E2E2E2E2E2E2E2E2E2E2E2E2E2E2E2E2E2E2E2E2E2E2E2E2E2E2E2E2E2E2E2E2E2E2E2E2E2E2E2E2E2E2E2E2E2E2E2E2E2E2E2E2
310
E2E2E2E2E2BEE2E2E2BEBEBEBEBEBEBEBEE2BEE2E2E2E2E2E2E2E2E2E2E2E2E2E2E2E2E2E2E2E2E2E2E2E2E2E2E2E2E2E2E2E2E2E2E2E2E2E2E2E2E2E2E2E2E2E2E2E2E2E22D2DE2E2E2E22D2DE2E2E2DCDCDCDCE2E2E2E2E2E2E2E2E2E2E2E2E2E2E2E2E2E2E2E2E2E2E2E2E2E2E2E2E2E2E2E2E2E2E2E2E2E2E2E2E2E2E2
310
E2E2E2E2E2E2E2E2E2E2E2E2E2E2E2E2E2E2E2E2E2E2E2E2E2E2E2E2E2E2E2E2E2E2BEE2E2E2E2E2E2E2E2E2E2E2E2E2E2E2E2E2E2E2E2E2E2E2E2E2E2E2E2E2E2E2E2E2E2E2E2E2E2E2E2E2E2E2E2E2E2E2E2E2E2E2E2E2E2E2E2E2E2E2E2E2E2E2E2E2E2E2E2E2E2E2E2E2E2E2E2E2E2E2E2E2E2E2E2E2E2E2E2E2E2E2E2
310
E2E2E2E2E2E2E2BEE2E2E2BEBEBEBEBEBEBEBEE2BEE2E2E2E2E2E2E2E2E2E2E2E2E2E2E2E2E2E2E2E2E2E2E2E2E2E2E2E2E2E2E2E2E2E2E2E2E2E2E2E2E2E2E2E2E2E2E2E2E2E22D2DE2E2E2E22D2DDCDCDCE2E2E2E2E2E2E2E2E2E2E2E2E2E2E2E2E2E2E2E2E2E2E2E2E2E2E2E2E2E2E2E2E2E2E2E2E2E2E2E2E2E2E2E2E2
310
E2E2E2E2E2E2E2E2E2E2E2E2E2E2E2E2E2E2E2E2E2E2E2E2E2E2E2E2E2E2E2E2E2E2E2E2BEE2E2E2E2E2E2E2E2E2E2E2E2E2E2E2E2E2E2E2E2E2E2E2E2E2E2E2E2E2E2E2E2E2E2E2E2E2E2E2E2E2E2E2E2E2E2E2E2E2E2E2E2E2E2E2E2E2E2E2E2E2E2E2E2E2E2E2E2E2E2E2E2E2E2E2E2E2E2E2E2E2E2E2E2E2E2E2E2E2E2
310
E2E2E2E2E2E2E2E2E2BEE2E2E2BEBEBEBEBEBEBEBEE2BEE2E2E2E2E2E2E2E2E2E2E2E2E2E2E2E2E2E2E2E2E2E2E2E2E2E2E2E2E2E2E2E2E2E2E2E2E2E2E2E2E2E2E2E2E2E2E2E2E2E22D2DE2E2E2E22D2DE2E2E2E2E2E2E2E2E2E2E2E2E2E2E2E2E2E2E2E2E2E2E2E2E2E2E2E2E2E2E2E2E2E2E2E2E2E2E2E2E2E2E2E2E2E2
310
E2E2E2E2E2E2E2E2E2E2E2E2E2E2E2E2E2E2E2E2E2E2E2E2E2E2E2E2E2E2E2E2E2E2E2E2E2E2BEE2E2E2E2E2E2E2E2E2E2E2E2E2E2E2E2E2E2E2E2E2E2E2E2E2E2E2E2E2E2E2E2E2E2E2E2E2E2E2E2E2E2E2E2E2E2E2E2E2E2E2E2E2E2E2E2E2E2E2E2E2E2E2E2E2E2E2E2E2E2E2E2E2E2E2E2E2E2E2E2E2E2E2E2E2E2E2E2
310
E2E2E2E2E2E2E2E2E2E2E2BEE2E2E2BEBEBEBEBEBEBEBEE2BEE2E2E2E2E2E2E2E2E2E2E2E2E2E2E2E2E2E2E2E2E2E2E2E2E2E2E2E2E2E2E2E2E2E2E2E2E2E2E2E2E2E2E2E2E2E2E2E2E2E22D2DE2E2E2E22D2DE2E2E2E2E2E2E2E2E2E2E2E2E2E2E2E2E2E2E2E2E2E2E2E2E2E2E2E2E2E2E2E2E2E2E2E2E2E2E2E2E2E2E2E2
310
E2E2E2E2E2E2E2E2E2E2E2E2E2E2E2E2E2E2E2E2E2E2E2E2E2E2E2E2E2E2E2E2E2E2E2E2E2E2E2E2BEE2E2E2E2E2E2E2E2E2E2E2E2E2E2E2E2E2E2E2E2E2E2E2E2E2E2E2E2E2E2E2E2E2E2E2E2E2E2E2E2E2E2E2E2E2E2E2E2E2E2E2E2E2E2E2E2E2E2E2E2E2E2E2E2E2E2E2E2E2E2E2E2E2E2E2E2E2E2E2E2E2E2E2E2E2E2
310
E2E2E2E2E2E2E2E2E2E2E2E2E2BEE2E2E2BEBEBEBEBEBEBEBEE2BEE2E2E2E2E2E2E2E2E2E2E2E2E2E2E2E2E2E2E2E2E2E2E2E2E2E2E2E2E2E2E2E2E2E2E2E2E2E2E2E2E2E2E2E2E2E2E2E2E2E22D2D2D2D2D2D2D2DE2E2E2E2E2E2E2E2E2E2E2E2E2E2E2E2E2E2E2E2E2E2E2E2E2E2E2E2E2E2E2E2E2E2E2E2E2E2E2E2E2E2
310
E2E2E2E2E2E2E2E2E2E2E2E2E2E2E2E2E2E2E2E2E2E2E2E2E2E2E2E2E2E2E2E2E2E2E2E2E2E2E2E2E2E2BEE2E2E2E2E2E2E2E2E2E2E2E2E2E2E2E2E2E2E2E2E2E2E2E2E2E2E2E2E2E2E2E2E2E2E2E2E2E2E2E2E2E2E2E2E2E2E2E2E2E2E2E2E2E2E2E2E2E2E2E2E2E2E2E2E2E2E2E2E2E2E2E2E2E2E2E2E2E2E2E2E2E2E2E2
310
E2E2E2E2E2E2E2E2E2E2E2E2E2E2E2BEE2E2E2BEBEBEE2E2BEBEBEE2BEE2E2E2E2E2E2E2E2E2E2E2E2E2E2E2E2E2E2E2E2E2E2E2E2E2E2E2E2E2E2E2E2E2E2E2E2E2E2E2E2E2E2E2E2E2E2E2E2E2E22D2D2D2D2D2D2DE2E2E2E2E2E2E2E2E2E2E2E2E2E2E2E2E2E2E2E2E2E2E2E2E2E2E2E2E2E2E2E2E2E2E2E2E2E2E2E2E2
310
E2E2E2E2E2E2E2E2E2E2E2E2E2E2E2E2E2E2E2E2E2E2E2E2E2E2E2E2E2E2E2E2E2E2E2E2E2E2E2E2E2E2E2E2BEE2E2E2E2E2E2E2E2E2E2E2E2E2E2E2E2E2E2E2E2E2E2E2E2E2E2E2E2E2E2E2E2E2E2E2E2E2E2E2E2E2E2E2E2E2E2E2E2E2E2E2E2E2E2E2E2E2E2E2E2E2E2E2E2E2E2E2E2E2E2E2E2E2E2E2E2E2E2E2E2E2E2
310
E2E2E2E2E2E2E2E2E2E2E2E2E2E2E2E2E2BEE2E2E2E2E2BEE2E2BEE2E2E2BEE2E2E2E2E2E2E2E2E2E2E2E2E2E2E2E2E2E2E2E2E2E2E2E2E2E2E2E2E2E2E2E2E2E2E2E2E2E2E2E2E2E2E2E2E2E2E2E2E2E2E2E2E2E2E2E2E2E2E2E2E2E2E2E2E2E2E2E2E2E2E2E2E2E2E2E2E2E2E2E2E2E2E2E2E2E2E2E2E2E2E2E2E2E2E2E2
310
E2E2E2E2E2E2E2E2E2E2E2E2E2E2E2E2E2E2E2E2E2E2E2E2E2E2E2E2E2E2E2E2E2E2E2E2E2E2E2E2E2E2E2E2E2E2BEE2E2E2E2E2E2E2E2E2E2E2E2E2E2E2E2E2E2E2E2E2E2E2E2E2E2E2E2E2E2E2E2E2E2E2E2E2E2E2E2E2E2E2E2E2E2E2E2E2E2E2E2E2E2E2E2E2E2E2E2E2E2E2E2E2E2E2E2E2E2E2E2E2E2E2E2E2E2E2E2
310
E2E2E2E2E2E2E2E2E2E2E2E2E2E2E2E2E2E2E2BEE2E2E2E2E2E2E2E2E2E2E2E2BEE2E2E2E2E2E2E2E2E2E2E2E2E2E2E2E2E2E2E2E2E2E2E2E2E2E2E2E2E2E2E2E2E2E2E2E2E2E2E2E2E2E2E2E2E2E2E2E2E2E2E2E2E2E2E2E2E2E2E2E2E2E2E2E2E2E2E2E2E2E2E2E2E2E2E2E2E2E2E2E2E2E2E2E2E2E2E2E2E2E2E2E2E2E2
310
E2E2E2E2E2E2E2E2E2E2E2E2E2E2E2E2E2E2E2E2E2E2E2E2E2E2E2E2E2E2E2E2E2E2E2E2E2E2E2E2E2E2E2E2E2E2E2E2BEE2E2E2E2E2E2E2E2E2E2E2E2E2E2E2E2E2E2E2E2E2E2E2E2E2E2E2E2E2E2E2E2E2E2E2E2E2E2E2E2E2E2E2E2E2E2E2E2E2E2E2E2E2E2E2E2E2E2E2E2E2E2E2E2E2E2E2E2E2E2E2E2E2E2E2E2E2E2
310
E2E2E2E2E2E2E2E2E2E2E2E2E2E2E2E2E2E2E2E2E2BEE2E2E2E2E2E2E2E2E2E2E2E2BEE2E2E2E2E2E2E2E2E2E2E2E2E2E2E2E2E2E2E2E2E2E2E2E2E2E2E2E2E2E2E2E2E2E2E2E2E2E2E2E2E2E2E2E2E2E2E2E2E2E2E2E2E2E2E2E2E2E2E2E2E2E2E2E2E2E2E2E2E2E2E2E2E2E2E2E2E2E2E2E2E2E2E2E2E2E2E2E2E2E2E2E2
310
E2E2E2E2E2E2E2E2E2E2E2E2E2E2E2E2E2E2E2E2E2E2E2E2E2E2E2E2E2E2E2E2E2E2E2E2E2E2E2E2E2E2E2E2E2E2E2E2E2E2BEE2E2E2E2E2E2E2E2E2E2E2E2E2E2E2E2E2E2E2E2E2E2E2E2E2E2E2E2E2E2E2E2E2E2E2E2E2E2E2E2E2E2E2E2E2E2E2E2E2E2E2E2E2E2E2E2E2E2E2E2E2E2E2E2E2E2E2E2E2E2E2E2E2E2E2E2
310
E2E2E2E2E2E2E2E2E2E2E2E2E2E2E2E2E2E2E2E2E2E2E2BEBEBEBEBEBEBEBEBEBEBEBEBEBEBEBEBEBEBEBEBEBEBEBEBEBEBEBEBEBEBEBEBEBEBEBEBEBEBEBEBEBEBEBEBEBEBEBEBEBEBEBEBEBEBEBEBEBEBEBEBEBEBEBEBEBEBEBEBEBEBEBEBEBEBEBEBEBEBEBEBEBEBEBEBEBEBEBEBEBEBEBEBEBEBEBEBEBEBEBEBEBEBEBE
310
BEBEBEBEBEBEBEBEBEBEBEBEBEBEBEBEBEBEBEBEBEBEBEBEBEBEBEBEBEBEBEBEBEBEBEBEBEBEBEBEBEBEBEBEBEBEBEBEBEBEBEBEBEE2E2E2E2E2E2E2E2E2E2E2E2E2E2E2E2E2E2E2E2E2E2E2E2E2E2E2E2E2E2E2E2E2E2E2E2E2E2E2E2E2E2E2E2E2E2E2E2E2E2E2E2E2E2E2E2E2E2E2E2E2E2E2E2E2E2E2E2E2E2E2E2E2E2
310
E2E2E2E2E2E2E2E2E2E2E2E2E2E2E2E2E2E2E2E2E2E2E2E2E2E2E2E2E2E2E2E2E2E2E2E2E2E2E2E2E2E2E2E2E2E2E2E2E2E2E2E2E2E2E2E2E2E2E2E2E2E2E2E2E2E2E2E2E2E2E2E2E2E2E2E2E2E2E2E2E2E2E2E2E2E2E2E2E2E2E2E2E2E2E2E2E2E2E2E2E2E2E2E2E2E2E2E2E2E2E2E2E2E2E2E2E2E2E2E2E2E2E2E2E2E2E2
310
E2E2E2E2E2E2E2E2E2E2E2E2E2E2E2E2E2E2E2E2E2E2E2E2E2E2E2E2E2E2E2E2E2E2E2E2E2E2E2E2E2E2E2E2E2E2E2E2E2E2E2E2E2E2E2E2E2E2E2E2E2E2E2E2E2E2E2E2E2E2E2E2E2E2E2E2E2E2E2E2E2E2E2E2E2E2E2E2E2E2E2E2E2E2E2E2E2E2E2E2E2E2E2E2E2E2E2E2E2E2E2E2E2E2E2E2E2E2E2E2E2E2E2E2E2E2E2
310
E2E2E2E2E2E2E2E2E2E2E2E2E2E2E2E2E2E2E2E2E2E2E2E2E2E2E2E2E2E2E2E2E2E2E2E2E2E2E2E2E2E2E2E2E2E2E2E2E2E2E2E2E2E2E2E2E2E2E2E2E2E2E2E2E2E2E2E2E2E2E2E2E2E2E2E2E2E2E2E2E2E2E2E2E2E2E2E2E2E2E2E2E2E2E2E2E2E2E2E2E2E2E2E2E2E2E2E2E2E2E2E2E2E2E2E2E2E2E2E2E2E2E2E2E2E2E2
310
E2E2E2E2E2E2E2E2E2E2E2E2E2E2E2E2E2E2E2E2E2E2E2E2E2E2E2E2E2E2E2E2E2E2E2E2E2E2E2E2E2E2E2E2E2E2E2E2E2E2E2E2E2E2E2E2E2E2E2E2E2E2E2E2E2E2E2E2E2E2E2E2E2E2E2E2E2E2E2E2E2E2E2E2E2E2E2E2E2E2E2E2E2E2E2E2E2E2E2E2E2E2E2E2E2E2E2E2E2E2E2E2E2E2E2E2E2E2E2E2E2E2E2E2E2E2E2
310
E2E2E2E2E2E2E2E2E2E2E2E2E2E2E2E2E2E2E2E2E2E2E2E2E2E2E2E2E2E2E2E2E2E2E2E2E2E2E2E2E2E2E2E2E2E2E2E2E2E2E2E2E2E2E2E2E2E2E2E2E2E2E2E2E2E2E2E2E2E2E2E2E2E2E2E2E2E2E2E2E2E2E2E2E2E2E2E2E2E2E2E2E2E2E2E2E2E2E2E2E2E2E2E2E2E2E2E2E2E2E2E2E2E2E2E2E2E2E2E2E2E2E2E2E2E2E2
310
E2E2E2E2E2E2E2E2E2E2E2E2E2E2E2E2E2E2E2E2E2E2E2E2E2E2E2E2E2E2E2E2E2E2E2E2E2E2E2E2E2E2E2E2E2E2E2E2E2E2E2E2E2E2E2E2E2E2E2E2E2E2E2E2E2E2E2E2E2E2E2E2E2E2E2E2E2E2E2E2E2E2E2E2E2E2E2E2E2E2E2E2E2E2E2E2E2E2E2E2E2E2E2E2E2E2E2E2E2E2E2E2E2E2E2E2E2E2E2E2E2E2E2E2E2E2E2
310
E2E2E2E2E2E2E2E2E2E2E2E2E2E2E2E2E2E2E2E2E2E2E2E2E2E2E2E2E2E2E2E2E2E2E2E2E2E2E2E2E2E2E2E2E2E2E2E2E2E2E2E2E2E2E2E2E2E2E2E2E2E2E2E2E2E2E2E2E2E2E2E2E2E2E2E2E2E2E2E2E2E2E2E2E2E2E2E2E2E2E2E2E2E2E2E2E2E2E2E2E2E2E2E2E2E2E2E2E2E2E2E2E2E2E2E2E2E2E2E2E2E2E2E2E2E2E2
310
E2E2E2E2E2E2E2E2E2E2E2E2E2E2E2E2E2E2E2E2E2E2E2E2E2E2E2E2E2E2E2E2E2E2E2E2E2E2E2E2E2E2E2E2E2E2E2E2E2E2E2E2E2E2E2E2E2E2E2E2E2E2E2E2E2E2E2E2E2E2E2E2E2E2E2E2E2E2E2E2E2E2E2E2E2E2E2E2E2E2E2E2E2E2E2E2E2E2E2E2E2E2E2E2E2E2E2E2E2E2E2E2E2E2E2E2E2E2E2E2E2E2E2E2E2E2E2
310
E2E2E2E2E2E2E2E2E2E2E2E2E2E2E2E2E2E2E2E2E2E2E2E2E2E2E2E2E2E2E2E2E2E2E2E2E2E2E2E2E2E2E2E2E2E2E2E2E2E2E2E2E2E2E2E2E2E2E2E2E2E2E2E2E2E2E2E2E2E2E2E2E2E2E2E2E2E2E2E2E2E2E2E2E2E2E2E2E2E2E2E2E2E2E2E2E2E2E2E2E2E2E2E2E2E2E2E2E2E2E2E2E2E2E2E2E2E2E2E2E2E2E2E2E2E2E2
310
E2E2E2E2E2E2E2E2E2E2E2E2E2E2E2E2E2E2E2E2E2E2E2E2E2E2E2E2E2E2E2E2E2E2E2E2E2E2E2E2E2E2E2E2E2E2E2E2E2E2E2E2E2E2E2E2E2E2E2E2E2E2E2E2E2E2E2E2E2E2E2E2E2E2E2E2E2E2E2E2E2E2E2E2E2E2E2E2E2E2E2E2E2E2E2E2E2E2E2E2E2E2E2E2E2E2E2E2E2E2E2E2E2E2E2E2E2E2E2E2E2E2E2E2E2E2E2
310
E2E2E2E2E2E2E2E2E2E2E2E2E2E2E2E2E2E2E2E2E2E2E2E2E2E2E2E2E2E2E2E2E2E2E2E2E2E2E2E2E2E2E2E2E2E2E2E2E2E2E2E2E2E2E2E2E2E2E2E2E2E2E2E2E2E2E2E2E2E2E2E2E2E2E2E2E2E2E2E2E2E2E2E2E2E2E2E2E2E2E2E2E2E2E2E2E2E2E2E2E2E2E2E2E2E2E2E2E2E2E2E2E2E2E2E2E2E2E2E2E2E2E2E2E2E2E2
310
E2E2E2E2E2E2E2E2E2E2E2E2E2E2E2E2E2E2E2E2E2E2E2E2E2E2E2E2E2E2E2E2E2E2E2E2E2E2E2E2E2E2E2E2E2E2E2E2E2E2E2E2E2E2E2E2E2E2E2E2E2E2E2E2E2E2E2E2E2E2E2E2E2E2E2E2E2E2E2E2E2E2E2E2E2E2E2E2E2E2E2E2E2E2E2E2E2E2E2E2E2E2E2E2E2E2E2E2E2E2E2E2E2E2E2E2E2E2E2E2E2E2E2E2E2E2E2
310
E2E2E2E2E2E2E2E2E2E2E2E2E2E2E2E2E2E2E2E2E2E2E2E2E2E2E2E2E2E2E2E2E2E2E2E2E2E2E2E2E2E2E2E2E2E2E2E2E2E2E2E2E2E2E2E2E2E2E2E2E2E2E2E2E2E2E2E2E2E2E2E2E2E2E2E2E2E2E2E2E2E2E2E2E2E2E2E2E2E2E2E2E2E2E2E2E2E2E2E2E2E2E2E2E2E2E2E2E2E2E2E2E2E2E2E2E2E2E2E2E2E2E2E2E2E2E2
310
E2E2E2E2E2E2E2E2E2E2E2E2E2E2E2E2E2E2E2E2E2E2E2E2E2E2E2E2E2E2E2E2E2E2E2E2E2E2E2E2E2E2E2E2E2E2E2E2E2E2E2E2E2E2E2E2E2E2E2E2E2E2E2E2E2E2E2E2E2E2E2E2E2E2E2E2E2E2E2E2E2E2E2E2E2E2E2E2E2E2E2E2E2E2E2E2E2E2E2E2E2E2E2E2E2E2E2E2E2E2E2E2E2E2E2E2E2E2E2E2E2E2E2E2E2E2E2
310
E2E2E2E2E2E2E2E2E2E2E2E2E2E2E2E2E2E2E2E2E2E2E2E2E2E2E2E2E2E2E2E2E2E2E2E2E2E2E2E2E2E2E2E2E2E2E2E2E2E2E2E2E2E2E2E2E2E2E2E2E2E2E2E2E2E2E2E2E2E2E2E2E2E2E2E2E2E2E2E2E2E2E2E2E2E2E2E2E2E2E2E2E2E2E2E2E2E2E2E2E2E2E2E2E2E2E2E2E2E2E2E2E2E2E2E2E2E2E2E2E2E2E2E2E2E2E2
310
E2E2E2E2E2E2E2E2E2E2E2E2E2E2E2E2E2E2E2E2E2E2E2E2E2E2E2E2E2E2E2E2E2E2E2E2E2E2E2E2E2E2E2E2E2E2E2E2E2E2E2E2E2E2E2E2E2E2E2E2E2E2E2E2E2E2E2E2E2E2E2E2E2E2E2E2E2E2E2E2E2E2E2E2E2E2E2E2E2E2E2E2E2E2E2E2E2E2E2E2E2E2E2E2E2E2E2E2E2E2E2E2E2E2E2E2E2E2E2E2E2E2E2E2E2E2E2
310
E2E2E2E2E2E2E2E2E2E2E2E2E2E2E2E2E2E2E2E2E2E2E2E2E2E2E2E2E2E2E2E2E2E2E2E2E2E2E2E2E2E2E2E2E2E2E2E2E2E2E2E2E2E2E2E2E2E2E2E2E2E2E2E2E2E2E2E2E2E2E2E2E2E2E2E2E2E2E2E2E2E2E2E2E2E2E2E2E2E2E2E2E2E2E2E2E2E2E2E2E2E2E2E2E2E2E2E2E2E2E2E2E2E2E2E2E2E2E2E2E2E2E2E2E2E2E2
310
E2E2E2E2E2E2E2E2E2E2E2E2E2E2E2E2E2E2E2E2E2E2E2E2E2E2E2E2E2E2E2E2E2E2E2E2E2E2E2E2E2E2E2E2E2E2E2E2E2E2E2E2E2E2E2E2E2E2E2E2E2E2E2E2E2E2E2E2E2E2E2E2E2E2E2E2E2E2E2E2E2E2E2E2E2E2E2E2E2E2E2E2E2E2E2E2E2E2E2E2E2E2E2E2E2E2E2E2E2E2E2E2E2E2E2E2E2E2E2E2E2E2E2E2E2E2E2
310
E2E2E2E2E2E2E2E2E2E2E2E2E2E2E2E2E2E2E2E2E2E2E2E2E2E2E2E2E2E2E2E2E2E2E2E2E2E2E2E2E2E2E2E2E2E2E2E2E2E2E2E2E2E2E2E2E2E2E2E2E2E2E2E2E2E2E2E2E2E2E2E2E2E2E2E2E2E2E2E2E2E2E2E2E2E2E2E2E2E2E2E2E2E2E2E2E2E2E2E2E2E2E2E2E2E2E2E2E2E2E2E2E2E2E2E2E2E2E2E2E2E2E2E2E2E2E2
310
E2E2E2E2E2E2E2E2E2E2E2E2E2E2E2E2E2E2E2E2E2E2E2E2E2E2E2E2E2E2E2E2E2E2E2E2E2E2E2E2E2E2E2E2E2E2E2E2E2E2E2E2E2E2E2E2E2E2E2E2E2E2E2E2E2E2E2E2E2E2E2E2E2E2E2E2E2E2E2E2E2E2E2E2E2E2E2E2E2E2E2E2E2E2E2E2E2E2E2E2E2E2E2E2E2E2E2E2E2E2E2E2E2E2E2E2E2E2E2E2E2E2E2E2E2E2E2
310
E2E2E2E2E2E2E2E2E2E2E2E2E2E2E2E2E2E2E2E2E2E2E2E2E2E2E2E2E2E2E2E2E2E2E2E2E2E2E2E2E2E2E2E2E2E2E2E2E2E2E2E2E2E2E2E2E2E2E2E2E2E2E2E2E2E2E2E2E2E2E2E2E2E2E2E2E2E2E2E2E2E2E2E2E2E2E2E2E2E2E2E2E2E2E2E2E2E2E2E2E2E2E2E2E2E2E2E2E2E2E2E2E2E2E2E2E2E2E2E2E2E2E2E2E2E2E2
310
E2E2E2E2E2E2E2E2E2E2E2E2E2E2E2E2E2E2E2E2E2E2E2E2E2E2E2E2E2E2E2E2E2E2E2E2E2E2E2E2E2E2E2E2E2E2E2E2E2E2E2E2E2E2E2E2E2E2E2E2E2E2E2E2E2E2E2E2E2E2E2E2E2E2E2E2E2E2E2E2E2E2E2E2E2E2E2E2E2E2E2E2E2E2E2E2E2E2E2E2E2E2E2E2E2E2E2E2E2E2E2E2E2E2E2E2E2E2E2E2E2E2E2E2E2E2E2
310
E2E2E2E2E2E2E2E2E2E2E2E2E2E2E2E2E2E2E2E2E2E2E2E2E2E2E2E2E2E2E2E2E2E2E2E2E2E2E2E2E2E2E2E2E2E2E2E2E2E2E2E2E2E2E2E2E2E2E2E2E2E2E2E2E2E2E2E2E2E2E2E2E2E2E2E2E2E2E2E2E2E2E2E2E2E2E2E2E2E2E2E2E2E2E2E2E2E2E2E2E2E2E2E2E2E2E2E2E2E2E2E2E2E2E2E2E2E2E2E2E2E2E2E2E2E2E2
310
E2E2E2E2E2E2E2E2E2E2E2E2E2E2E2E2E2E2E2E2E2E2E2E2E2E2E2E2E2E2E2E2E2E2E2E2E2E2E2E2E2E2E2E2E2E2E2E2E2E2E2E2E2E2E2E2E2E2E2E2E2E2E2E2E2E2E2E2E2E2E2E2E2E2E2E2E2E2E2E2E2E2E2E2E2E2E2E2E2E2E2E2E2E2E2E2E2E2E2E2E2E2E2E2E2E2E2E2E2E2E2E2E2E2E2E2E2E2E2E2E2E2E2E2E2E2E2
310
E2E2E2E2E2E2E2E2E2E2E2E2E2E2E2E2E2E2E2E2E2E2E2E2E2E2E2E2E2E2E2E2E2E2E2E2E2E2E2E2E2E2E2E2E2E2E2E2E2E2E2E2E2E2E2E2E2E2E2E2E2E2E2E2E2E2E2E2E2E2E2E2E2E2E2E2E2E2E2E2E2E2E2E2E2E2E2E2E2E2E2E2E2E2E2E2E2E2E2E2E2E2E2E2E2E2E2E2E2E2E2E2E2E2E2E2E2E2E2E2E2E2E2E2E2E2E2
310
E2E2E2E2E2E2E2E2E2E2E2E2E2E2E2E2E2E2E2E2E2E2E2E2E2E2E2E2E2E2E2E2E2E2E2E2E2E2E2E2E2E2E2E2E2E2E2E2E2E2E2E2E2E2E2E2E2E2E2E2E2E2E2E2E2E2E2E2E2E2E2E2E2E2E2E2E2E2E2E2E2E2E2E2E2E2E2E2E2E2E2E2E2E2E2E2E2E2E2E2E2E2E2E2E2E2E2E2E2E2E2E2E2E2E2E2E2E2E2E2E2E2E2E2E2E2E2
310
E2E2E2E2E2E2E2E2E2E2E2E2E2E2E2E2E2E2E2E2E2E2E2E2E2E2E2E2E2E2E2E2E2E2E2E2E2E2E2E2E2E2E2E2E2E2E2E2E2E2E2E2E2E2E2E2E2E2E2E2E2E2E2E2E2E2E2E2E2E2E2E2E2E2E2E2E2E2E2E2E2E2E2E2E2E2E2E2E2E2E2E2E2E2E2E2E2E2E2E2E2E2E2E2E2E2E2E2E2E2E2E2E2E2E2E2E2E2E2E2E2E2E2E2E2E2E2
310
E2E2E2E2E2E2E2E2E2E2E2E2E2E2E2E2E2E2E2E2E2E2E2E2E2E2E2E2E2E2E2E2E2E2E2E2E2E2E2E2E2E2E2E2E2E2E2E2E2E2E2E2E2E2E2E2E2E2E2E2E2E2E2E2E2E2E2E2E2E2E2E2E2E2E2E2E2E2E2E2E2E2E2E2E2E2E2E2E2E2E2E2E2E2E2E2E2E2E2E2E2E2E2E2E2E2E2E2E2E2E2E2E2E2E2E2E2E2E2E2E2E2E2E2E2E2E2
310
E2E2E2E2E2E2E2E2E2E2E2E2E2E2E2E2E2E2E2E2E2E2E2E2E2E2E2E2E2E2E2E2E2E2E2E2E2E2E2E2E2E2E2E2E2E2E2E2E2E2E2E2E2E2E2E2E2E2E2E2E2E2E2E2E2E2E2E2E2E2E2E2E2E2E2E2E2E2E2E2E2E2E2E2E2E2E2E2E2E2E2E2E2E2E2E2E2E2E2E2E2E2E2E2E2E2E2E2E2E2E2E2E2E2E2E2E2E2E2E2E2E2E2E2E2E2E2
310
E2E2E2E2E2E2E2E2E2E2E2E2E2E2E2E2E2E2E2E2E2E2E2E2E2E2E2E2E2E2E2E2E2E2E2E2E2E2E2E2E2E2E2E2E2E2E2E2E2E2E2E2E2E2E2E2E2E2E2E2E2E2E2E2E2E2E2E2E2E2E2E2E2E2E2E2E2E2E2E2E2E2E2E2E2E2E2E2E2E2E2E2E2E2E2E2E2E2E2E2E2E2E2E2E2E2E2E2E2E2E2E2E2E2E2E2E2E2E2E2E2E2E2E2E2E2E2
310
E2E2E2E2E2E2E2E2E2E2E2E2E2E2E2E2E2E2E2E2E2E2E2E2E2E2E2E2E2E2E2E2E2E2E2E2E2E2E2E2E2E2E2E2E2E2E2E2E2E2E2E2E2E2E2E2E2E2E2E2E2E2E2E2E2E2E2E2E2E2E2E2E2E2E2E2E2E2E2E2E2E2E2E2E2E2E2E2E2E2E2E2E2E2E2E2E2E2E2E2E2E2E2E2E2E2E2E2E2E2E2E2E2E2E2E2E2E2E2E2E2E2E2E2E2E2E2
310
E2E2E2E2E2E2E2E2E2E2E2E2E2E2E2E2E2E2E2E2E2E2E2E2E2E2E2E2E2E2E2E2E2E2E2E2E2E2E2E2E2E2E2E2E2E2E2E2E2E2E2E2E2E2E2E2E2E2E2E2E2E2E2E2E2E2E2E2E2E2E2E2E2E2E2E2E2E2E2E2E2E2E2E2E2E2E2E2E2E2E2E2E2E2E2E2E2E2E2E2E2E2E2E2E2E2E2E2E2E2E2E2E2E2E2E2E2E2E2E2E2E2E2E2E2E2E2
310
E2E2E2E2E2E2E2E2E2E2E2E2E2E2E2E2E2E2E2E2E2E2E2E2E2E2E2E2E2E2E2E2E2E2E2E2E2E2E2E2E2E2E2E2E2E2E2E2E2E2E2E2E2E2E2E2E2E2E2E2E2E2E2E2E2E2E2E2E2E2E2E2E2E2E2E2E2E2E2E2E2E2E2E2E2E2E2E2E2E2E2E2E2E2E2E2E2E2E2E2E2E2E2E2E2E2E2E2E2E2E2E2E2E2E2E2E2E2E2E2E2E2E2E2E2E2E2
310
E2E2E2E2E2E2E2E2E2E2E2E2E2E2E2E2E2E2E2E2E2E2E2E2E2E2E2E2E2E2E2E2E2E2E2E2E2E2E2E2E2E2E2E2E2E2E2E2E2E2E2E2E2E2E2E2E2E2E2E2E2E2E2E2E2E2E2E2E2E2E2E2E2E2E2E2E2E2E2E2E2E2E2E2E2E2E2E2E2E2E2E2E2E2E2E2E2E2E2E2E2E2E2E2E2E2E2E2E2E2E2E2E2E2E2E2E2E2E2E2E2E2E2E2E2E2E2
310
E2E2E2E2E2E2E2E2E2E2E2E2E2E2E2E2E2E2E2E2E2E2E2E2E2E2E2E2E2E2E2E2E2E2E2E2E2E2E2E2E2E2E2E2E2E2E2E2E2E2E2E2E2E2E2E2E2E2E2E2E2E2E2E2E2E2E2E2E2E2E2E2E2E2E2E2E2E2E2E2E2E2E2E2E2E2E2E2E2E2E2E2E2E2E2E2E2E2E2E2E2E2E2E2E2E2E2E2E2E2E2E2E2E2E2E2E2E2E2E2E2E2E2E2E2E2E2
310
E2E2E2E2E2E2E2E2E2E2E2E2E2E2E2E2E2E2E2E2E2E2E2E2E2E2E2E2E2E2E2E2E2E2E2E2E2E2E2E2E2E2E2E2E2E2E2E2E2E2E2E2E2E2E2E2E2E2E2E2E2E2E2E2E2E2E2E2E2E2E2E2E2E2E2E2E2E2E2E2E2E2E2E2E2E2E2E2E2E2E2E2E2E2E2E2E2E2E2E2E2E2E2E2E2E2E2E2E2E2E2E2E2E2E2E2E2E2E2E2E2E2E2E2E2E2E2
310
E2E2E2E2E2E2E2E2E2E2E2E2E2E2E2E2E2E2E2E2E2E2E2E2E2E2E2E2E2E2E2E2E2E2E2E2E2E2E2E2E2E2E2E2E2E2E2E2E2E2E2E2E2E2E2E2E2E2E2E2E2E2E2E2E2E2E2E2E2E2E2E2E2E2E2E2E2E2E2E2E2E2E2E2E2E2E2E2E2E2E2E2E2E2E2E2E2E2E2E2E2E2E2E2E2E2E2E2E2E2E2E2E2E2E2E2E2E2E2E2E2E2E2E2E2E2E2
310
E2E2E2E2E2E2E2E2E2E2E2E2E2E2E2E2E2E2E2E2E2E2E2E2E2E2E2E2E2E2E2E2E2E2E2E2E2E2E2E2E2E2E2E2E2E2E2E2E2E2E2E2E2E2E2E2E2E2E2E2E2E2E2E2E2E2E2E2E2E2E2E2E2E2E2E2E2E2E2E2E2E2E2E2E2E2E2E2E2E2E2E2E2E2E2E2E2E2E2E2E2E2E2E2E2E2E2E2E2E2E2E2E2E2E2E2E2E2E2E2E2E2E2E2E2E2E2
310
E2E2E2E2E2E2E2E2E2E2E2E2E2E2E2E2E2E2E2E2E2E2E2E2E2E2E2E2E2E2E2E2E2E2E2E2E2E2E2E2E2E2E2E2E2E2E2E2E2E2E2E2E2E2E2E2E2E2E2E2E2E2E2E2E2E2E2E2E2E2E2E2E2E2E2E2E2E2E2E2E2E2E2E2E2E2E2E2E2E2E2E2E2E2E2E2E2E2E2E2E2E2E2E2E2E2E2E2E2E2E2E2E2E2E2E2E2E2E2E2E2E2E2E2E2E2E2
310
E2E2E2E2E2E2E2E2E2E2E2E2E2E2E2E2E2E2E2E2E2E2E2E2E2E2E2E2E2E2E2E2E2E2E2E2E2E2E2E2E2E2E2E2E2E2E2E2E2E2E2E2E2E2E2E2E2E2E2E2E2E2E2E2E2E2E2E2E2E2E2E2E2E2E2E2E2E2E2E2E2E2E2E2E2E2E2E2E2E2E2E2E2E2E2E2E2E2E2E2E2E2E2E2E2E2E2E2E2E2E2E2E2E2E2E2E2E2E2E2E2E2E2E2E2E2E2
310
E2E2E2E2E2E2E2E2E2E2E2E2E2E2E2E2E2E2E2E2E2E2E2E2E2E2E2E2E2E2E2E2E2E2E2E2E2E2E2E2E2E2E2E2E2E2E2E2E2E2E2E2E2E2E2E2E2E2E2E2E2E2E2E2E2E2E2E2E2E2E2E2E2E2E2E2E2E2E2E2E2E2E2E2E2E2E2E2E2E2E2E2E2E2E2E2E2E2E2E2E2E2E2E2E2E2E2E2E2E2E2E2E2E2E2E2E2E2E2E2E2E2E2E2E2E2E2
310
E2E2E2E2E2E2E2E2E2E2E2E2E2E2E2E2E2E2E2E2E2E2E2E2E2E2E2E2E2E2E2E2E2E2E2E2E2E2E2E2E2E2E2E2E2E2E2E2E2E2E2E2E2E2E2E2E2E2E2E2E2E2E2E2E2E2E2E2E2E2E2E2E2E2E2E2E2E2E2E2E2E2E2E2E2E2E2E2E2E2E2E2E2E2E2E2E2E2E2E2E2E2E2E2E2E2E2E2E2E2E2E2E2E2E2E2E2E2E2E2E2E2E2E2E2E2E2
310
E2E2E2E2E2E2E2E2E2E2E2E2E2E2E2E2E2E2E2E2E2E2E2E2E2E2E2E2E2E2E2E2E2E2E2E2E2E2E2E2E2E2E2E2E2E2E2E2E2E2E2E2E2E2E2E2E2E2E2E2E2E2E2E2E2E2E2E2E2E2E2E2E2E2E2E2E2E2E2E2E2E2E2E2E2E2E2E2E2E2E2E2E2E2E2E2E2E2E2E2E2E2E2E2E2E2E2E2E2E2E2E2E2E2E2E2E2E2E2E2E2E2E2E2E2E2E2
310
E2E2E2E2E2E2E2E2E2E2E2E2E2E2E2E2E2E2E2E2E2E2E2E2E2E2E2E2E2E2E2E2E2E2E2E2E2E2E2E2E2E2E2E2E2E2E2E2E2E2E2E2E2E2E2E2E2E2E2E2E2E2E2E2E2E2E2E2E2E2E2E2E2E2E2E2E2E2E2E2E2E2E2E2E2E2E2E2E2E2E2E2E2E2E2E2E2E2E2E2E2E2E2E2E2E2E2E2E2E2E2E2E2E2E2E2E2E2E2E2E2E2E2E2E2E2E2
310
E2E2E2E2E2E2E2E2E2E2E2E2E2E2E2E2E2E2E2E2E2E2E2E2E2E2E2E2E2E2E2E2E2E2E2E2E2E2E2E2E2E2E2E2E2E2E2E2E2E2E2E2E2E2E2E2E2E2E2E2E2E2E2E2E2E2E2E2E2E2E2E2E2E2E2E2E2E2E2E2E2E2E2E2E2E2E2E2E2E2E2E2E2E2E2E2E2E2E2E2E2E2E2E2E2E2E2E2E2E2E2E2E2E2E2E2E2E2E2E2E2E2E2E2E2E2E2
310
E2E2E2E2E2E2E2E2E2E2E2E2E2E2E2E2E2E2E2E2E2E2E2E2E2E2E2E2E2E2E2E2E2E2E2E2E2E2E2E2E2E2E2E2E2E2E2E2E2E2E2E2E2E2E2E2E2E2E2E2E2E2E2E2E2E2E2E2E2E2E2E2E2E2E2E2E2E2E2E2E2E2E2E2E2E2E2E2E2E2E2E2E2E2E2E2E2E2E2E2E2E2E2E2E2E2E2E2E2E2E2E2E2E2E2E2E2E2E2E2E2E2E2E2E2E2E2
310
E2E2E2E2E2E2E2E2E2E2E2E2E2E2E2E2E2E2E2E2E2E2E2E2E2E2E2E2E2E2E2E2E2E2E2E2E2E2E2E2E2E2E2E2E2E2E2E2E2E2E2E2E2E2E2E2E2E2E2E2E2E2E2E2E2E2E2E2E2E2E2E2E2E2E2E2E2E2E2E2E2E2E2E2E2E2E2E2E2E2E2E2E2E2E2E2E2E2E2E2E2E2E2E2E2E2E2E2E2E2E2E2E2E2E2E2E2E2E2E2E2E2E2E2E2E2E2
310
E2E2E2E2E2E2E2E2E2E2E2E2E2E2E2E2E2E2E2E2E2E2E2E2E2E2E2E2E2E2E2E2E2E2E2E2E2E2E2E2E2E2E2E2E2E2E2E2E2E2E2E2E2E2E2E2E2E2E2E2E2E2E2E2E2E2E2E2E2E2E2E2E2E2E2E2E2E2E2E2E2E2E2E2E2E2E2E2E2E2E2E2E2E2E2E2E2E2E2E2E2E2E2E2E2E2E2E2E2E2E2E2E2E2E2E2E2E2E2E2E2E2E2E2E2E2E2
310
E2E2E2E2E2E2E2E2E2E2E2E2E2E2E2E2E2E2E2E2E2E2E2E2E2E2E2E2E2E2E2E2E2E2E2E2E2E2E2E2E2E2E2E2E2E2E2E2E2E2E2E2E2E2E2E2E2E2E2E2E2E2E2E2E2E2E2E2E2E2E2E2E2E2E2E2E2E2E2E2E2E2E2E2E2E2E2E2E2E2E2E2E2E2E2E2E2E2E2E2E2E2E2E2E2E2E2E2E2E2E2E2E2E2E2E2E2E2E2E2E2E2E2E2E2E2E2
310
E2E2E2E2E2E2E2E2E2E2E2E2E2E2E2E2E2E2E2E2E2E2E2E2E2E2E2E2E2E2E2E2E2E2E2E2E2E2E2E2E2E2E2E2E2E2E2E2E2E2E2E2E2E2E2E2E2E2E2E2E2E2E2E2E2E2E2E2E2E2E2E2E2E2E2E2E2E2E2E2E2E2E2E2E2E2E2E2E2E2E2E2E2E2E2E2E2E2E2E2E2E2E2E2E2E2E2E2E2E2E2E2E2E2E2E2E2E2E2E2E2E2E2E2E2E2E2
310
E2E2E2E2E2E2E2E2E2E2E2E2E2E2E2E2E2E2E2E2E2E2E2E2E2E2E2E2E2E2E2E2E2E2E2E2E2E2E2E2E2E2E2E2E2E2E2E2E2E2E2E2E2E2E2E2E2E2E2E2E2E2E2E2E2E2E2E2E2E2E2E2E2E2E2E2E2E2E2E2E2E2E2E2E2E2E2E2E2E2E2E2E2E2E2E2E2E2E2E2E2E2E2E2E2E2E2E2E2E2E2E2E2E2E2E2E2E2E2E2E2E2E2E2E2E2E2
310
E2E2E2E2E2E2E2E2E2E2E2E2E2E2E2E2E2E2E2E2E2E2E2E2E2E2E2E2E2E2E2E2E2E2E2E2E2E2E2E2E2E2E2E2E2E2E2E2E2E2E2E2E2E2E2E2E2E2E2E2E2E2E2E2E2E2E2E2E2E2E2E2E2E2E2E2E2E2E2E2E2E2E2E2E2E2E2E2E2E2E2E2E2E2E2E2E2E2E2E2E2E2E2E2E2E2E2E2E2E2E2E2E2E2E2E2E2E2E2E2E2E2E2E2E2E2E2
310
E2E2E2E2E2E2E2E2E2E2E2E2E2E2E2E2E2E2E2E2E2E2E2E2E2E2E2E2E2E2E2E2E2E2E2E2E2E2E2E2E2E2E2E2E2E2E2E2E2E2E2E2E2E2E2E2E2E2E2E2E2E2E2E2E2E2E2E2E2E2E2E2E2E2E2E2E2E2E2E2E2E2E2E2E2E2E2E2E2E2E2E2E2E2E2E2E2E2E2E2E2E2E2E2E2E2E2E2E2E2E2E2E2E2E2E2E2E2E2E2E2E2E2E2E2E2E2
310
E2E2E2E2E2E2E2E2E2E2E2E2E2E2E2E2E2E2E2E2E2E2E2E2E2E2E2E2E2E2E2E2E2E2E2E2E2E2E2E2E2E2E2E2E2E2E2E2E2E2E2E2E2E2E2E2E2E2E2E2E2E2E2E2E2E2E2E2E2E2E2E2E2E2E2E2E2E2E2E2E2E2E2E2E2E2E2E2E2E2E2E2E2E2E2E2E2E2E2E2E2E2E2E2E2E2E2E2E2E2E2E2E2E2E2E2E2E2E2E2E2E2E2E2E2E2E2
310
E2E2E2E2E2E2E2E2E2E2E2E2E2E2E2E2E2E2E2E2E2E2E2E2E2E2E2E2E2E2E2E2E2E2E2E2E2E2E2E2E2E2E2E2E2E2E2E2E2E2E2E2E2E2E2E2E2E2E2E2E2E2E2E2E2E2E2E2E2E2E2E2E2E2E2E2E2E2E2E2E2E2E2E2E2E2E2E2E2E2E2E2E2E2E2E2E2E2E2E2E2E2E2E2E2E2E2E2E2E2E2E2E2E2E2E2E2E2E2E2E2E2E2E2E2E2E2
310
E2E2E2E2E2E2E2E2E2E2E2E2E2E2E2E2E2E2E2E2E2E2E2E2E2E2E2E2E2E2E2E2E2E2E2E2E2E2E2E2E2E2E2E2E2E2E2E2E2E2E2E2E2E2E2E2E2E2E2E2E2E2E2E2E2E2E2E2E2E2E2E2E2E2E2E2E2E2E2E2E2E2E2E2E2E2E2E2E2E2E2E2E2E2E2E2E2E2E2E2E2E2E2E2E2E2E2E2E2E2E2E2E2E2E2E2E2E2E2E2E2E2E2E2E2E2E2
310
E2E2E2E2E2E2E2E2E2E2E2E2E2E2E2E2E2E2E2E2E2E2E2E2E2E2E2E2E2E2E2E2E2E2E2E2E2E2E2E2E2E2E2E2E2E2E2E2E2E2E2E2E2E2E2E2E2E2E2E2E2E2E2E2E2E2E2E2E2E2E2E2E2E2E2E2E2E2E2E2E2E2E2E2E2E2E2E2E2E2E2E2E2E2E2E2E2E2E2E2E2E2E2E2E2E2E2E2E2E2E2E2E2E2E2E2E2E2E2E2E2E2E2E2E2E2E2
310
E2E2E2E2E2E2E2E2E2E2E2E2E2E2E2E2E2E2E2E2E2E2E2E2E2E2E2E2E2E2E2E2E2E2E2E2E2E2E2E2E2E2E2E2E2E2E2E2E2E2E2E2E2E2E2E2E2E2E2E2E2E2E2E2E2E2E2E2E2E2E2E2E2E2E2E2E2E2E2E2E2E2E2E2E2E2E2E2E2E2E2E2E2E2E2E2E2E2E2E2E2E2E2E2E2E2E2E2E2E2E2E2E2E2E2E2E2E2E2E2E2E2E2E2E2E2E2
310
E2E2E2E2E2E2E2E2E2E2E2E2E2E2E2E2E2E2E2E2E2E2E2E2E2E2E2E2E2E2E2E2E2E2E2E2E2E2E2E2E2E2E2E2E2E2E2E2E2E2E2E2E2E2E2E2E2E2E2E2E2E2E2E2E2E2E2E2E2E2E2E2E2E2E2E2E2E2E2E2E2E2E2E2E2E2E2E2E2E2E2E2E2E2E2E2E2E2E2E2E2E2E2E2E2E2E2E2E2E2E2E2E2E2E2E2E2E2E2E2E2E2E2E2E2E2E2
310
E2E2E2E2E2E2E2E2E2E2E2E2E2E2E2E2E2E2E2E2E2E2E2E2E2E2E2E2E2E2E2E2E2E2E2E2E2E2E2E2E2E2E2E2E2E2E2E2E2E2E2E2E2E2E2E2E2E2E2E2E2E2E2E2E2E2E2E2E2E2E2E2E2E2E2E2E2E2E2E2E2E2E2E2E2E2E2E2E2E2E2E2E2E2E2E2E2E2E2E2E2E2E2E2E2E2E2E2E2E2E2E2E2E2E2E2E2E2E2E2E2E2E2E2E2E2E2
310
E2E2E2E2E2E2E2E2E2E2E2E2E2E2E2E2E2E2E2E2E2E2E2E2E2E2E2E2E2E2E2E2E2E2E2E2E2E2E2E2E2E2E2E2E2E2E2E2E2E2E2E2E2E2E2E2E2E2E2E2E2E2E2E2E2E2E2E2E2E2E2E2E2E2E2E2E2E2E2E2E2E2E2E2E2E2E2E2E2E2E2E2E2E2E2E2E2E2E2E2E2E2E2E2E2E2E2E2E2E2E2E2E2E2E2E2E2E2E2E2E2E2E2E2E2E2E2
310
E2E2E2E2E2E2E2E2E2E2E2E2E2E2E2E2E2E2E2E2E2E2E2E2E2E2E2E2E2E2E2E2E2E2E2E2E2E2E2E2E2E2E2E2E2E2E2E2E2E2E2E2E2E2E2E2E2E2E2E2E2E2E2E2E2E2E2E2E2E2E2E2E2E2E2E2E2E2E2E2E2E2E2E2E2E2E2E2E2E2E2E2E2E2E2E2E2E2E2E2E2E2E2E2E2E2E2E2E2E2E2E2E2E2E2E2E2E2E2E2E2E2E2E2E2E2E2
310
E2E2E2E2E2E2E2E2E2E2E2E2E2E2E2E2E2E2E2E2E2E2E2E2E2E2E2E2E2E2E2E2E2E2E2E2E2E2E2E2E2E2E2E2E2E2E2E2E2E2E2E2E2E2E2E2E2E2E2E2E2E2E2E2E2E2E2E2E2E2E2E2E2E2E2E2E2E2E2E2E2E2E2E2E2E2E2E2E2E2E2E2E2E2E2E2E2E2E2E2E2E2E2E2E2E2E2E2E2E2E2E2E2E2E2E2E2E2E2E2E2E2E2E2E2E2E2
310
E2E2E2E2E2E2E2E2E2E2E2E2E2E2E2E2E2E2E2E2E2E2E2E2E2E2E2E2E2E2E2E2E2E2E2E2E2E2E2E2E2E2E2E2E2E2E2E2E2E2E2E2E2E2E2E2E2E2E2E2E2E2E2E2E2E2E2E2E2E2E2E2E2E2E2E2E2E2E2E2E2E2E2E2E2E2E2E2E2E2E2E2E2E2E2E2E2E2E2E2E2E2E2E2E2E2E2E2E2E2E2E2E2E2E2E2E2E2E2E2E2E2E2E2E2E2E2
310
E2E2E2E2E2E2E2E2E2E2E2E2E2E2E2E2E2E2E2E2E2E2E2E2E2E2E2E2E2E2E2E2E2E2E2E2E2E2E2E2E2E2E2E2E2E2E2E2E2E2E2E2E2E2E2E2E2E2E2E2E2E2E2E2E2E2E2E2E2E2E2E2E2E2E2E2E2E2E2E2E2E2E2E2E2E2E2E2E2E2E2E2E2E2E2E2E2E2E2E2E2E2E2E2E2E2E2E2E2E2E2E2E2E2E2E2E2E2E2E2E2E2E2E2E2E2E2
310
E2E2E2E2E2E2E2E2E2E2E2E2E2E2E2E2E2E2E2E2E2E2E2E2E2E2E2E2E2E2E2E2E2E2E2E2E2E2E2E2E2E2E2E2E2E2E2E2E2E2E2E2E2E2E2E2E2E2E2E2E2E2E2E2E2E2E2E2E2E2E2E2E2E2E2E2E2E2E2E2E2E2E2E2E2E2E2E2E2E2E2E2E2E2E2E2E2E2E2E2E2E2E2E2E2E2E2E2E2E2E2E2E2E2E2E2E2E2E2E2E2E2E2E2E2E2E2
310
E2E2E2E2E2E2E2E2E2E2E2E2E2E2E2E2E2E2E2E2E2E2E2E2E2E2E2E2E2E2E2E2E2E2E2E2E2E2E2E2E2E2E2E2E2E2E2E2E2E2E2E2E2E2E2E2E2E2E2E2E2E2E2E2E2E2E2E2E2E2E2E2E2E2E2E2E2E2E2E2E2E2E2E2E2E2E2E2E2E2E2E2E2E2E2E2E2E2E2E2E2E2E2E2E2E2E2E2E2E2E2E2E2E2E2E2E2E2E2E2E2E2E2E2E2E2E2
310
E2E2E2E2E2E2E2E2E2E2E2E2E2E2E2E2E2E2E2E2E2E2E2E2E2E2E2E2E2E2E2E2E2E2E2E2E2E2E2E2E2E2E2E2E2E2E2E2E2E2E2E2E2E2E2E2E2E2E2E2E2E2E2E2E2E2E2E2E2E2E2E2E2E2E2E2E2E2E2E2E2E2E2E2E2E2E2E2E2E2E2E2E2E2E2E2E2E2E2E2E2E2E2E2E2E2E2E2E2E2E2E2E2E2E2E2E2E2E2E2E2E2E2E2E2E2E2
310
E2E2E2E2E2E2E2E2E2E2E2E2E2E2E2E2E2E2E2E2E2E2E2E2E2E2E2E2E2E2E2E2E2E2E2E2E2E2E2E2E2E2E2E2E2E2E2E2E2E2E2E2E2E2E2E2E2E2E2E2E2E2E2E2E2E2E2E2E2E2E2E2E2E2E2E2E2E2E2E2E2E2E2E2E2E2E2E2E2E2E2E2E2E2E2E2E2E2E2E2E2E2E2E2E2E2E2E2E2E2E2E2E2E2E2E2E2E2E2E2E2E2E2E2E2E2E2
310
E2E2E2E2E2E2E2E2E2E2E2E2E2E2E2E2E2E2E2E2E2E2E2E2E2E2E2E2E2E2E2E2E2E2E2E2E2E2E2E2E2E2E2E2E2E2E2E2E2E2E2E2E2E2E2E2E2E2E2E2E2E2E2E2E2E2E2E2E2E2E2E2E2E2E2E2E2E2E2E2E2E2E2E2E2E2E2E2E2E2E2E2E2E2E2E2E2E2E2E2E2E2E2E2E2E2E2E2E2E2E2E2E2E2E2E2E2E2E2E2E2E2E2E2E2E2E2
310
E2E2E2E2E2E2E2E2E2E2E2E2E2E2E2E2E2E2E2E2E2E2E2E2E2E2E2E2E2E2E2E2E2E2E2E2E2E2E2E2E2E2E2E2E2E2E2E2E2E2E2E2E2E2E2E2E2E2E2E2E2E2E2E2E2E2E2E2E2E2E2E2E2E2E2E2E2E2E2E2E2E2E2E2E2E2E2E2E2E2E2E2E2E2E2E2E2E2E2E2E2E2E2E2E2E2E2E2E2E2E2E2E2E2E2E2E2E2E2E2E2E2E2E2E2E2E2
310
E2E2E2E2E2E2E2E2E2E2E2E2E2E2E2E2E2E2E2E2E2E2E2E2E2E2E2E2E2E2E2E2E2E2E2E2E2E2E2E2E2E2E2E2E2E2E2E2E2E2E2E2E2E2E2E2E2E2E2E2E2E2E2E2E2E2E2E2E2E2E2E2E2E2E2E2E2E2E2E2E2E2E2E2E2E2E2E2E2E2E2E2E2E2E2E2E2E2E2E2E2E2E2E2E2E2E2E2E2E2E2E2E2E2E2E2E2E2E2E2E2E2E2E2E2E2E2
310
E2E2E2E2E2E2E2E2E2E2E2E2E2E2E2E2E2E2E2E2E2E2E2E2E2E2E2E2E2E2E2E2E2E2E2E2E2E2E2E2E2E2E2E2E2E2E2E2E2E2E2E2E2E2E2E2E2E2E2E2E2E2E2E2E2E2E2E2E2E2E2E2E2E2E2E2E2E2E2E2E2E2E2E2E2E2E2E2E2E2E2E2E2E2E2E2E2E2E2E2E2E2E2E2E2E2E2E2E2E2E2E2E2E2E2E2E2E2E2E2E2E2E2E2E2E2E2
310
E2E2E2E2E2E2E2E2E2E2E2E2E2E2E2E2E2E2E2E2E2E2E2E2E2E2E2E2E2E2E2E2E2E2E2E2E2E2E2E2E2E2E2E2E2E2E2E2E2E2E2E2E2E2E2E2E2E2E2E2E2E2E2E2E2E2E2E2E2E2E2E2E2E2E2E2E2E2E2E2E2E2E2E2E2E2E2E2E2E2E2E2E2E2E2E2E2E2E2E2E2E2E2E2E2E2E2E2E2E2E2E2E2E2E2E2E2E2E2E2E2E2E2E2E2E2E2
310
E2E2E2E2E2E2E2E2E2E2E2E2E2E2E2E2E2E2E2E2E2E2E2E2E2E2E2E2E2E2E2E2E2E2E2E2E2E2E2E2E2E2E2E2E2E2E2E2E2E2E2E2E2E2E2E2E2E2E2E2E2E2E2E2E2E2E2E2E2E2E2E2E2E2E2E2E2E2E2E2E2E2E2E2E2E2E2E2E2E2E2E2E2E2E2E2E2E2E2E2E2E2E2E2E2E2E2E2E2E2E2E2E2E2E2E2E2E2E2E2E2E2E2E2E2E2E2
310
E2E2E2E2E2E2E2E2E2E2E2E2E2E2E2E2E2E2E2E2E2E2E2E2E2E2E2E2E2E2E2E2E2E2E2E2E2E2E2E2E2E2E2E2E2E2E2E2E2E2E2E2E2E2E2E2E2E2E2E2E2E2E2E2E2E2E2E2E2E2E2E2E2E2E2E2E2E2E2E2E2E2E2E2E2E2E2E2E2E2E2E2E2E2E2E2E2E2E2E2E2E2E2E2E2E2E2E2E2E2E2E2E2E2E2E2E2E2E2E2E2E2E2E2E2E2E2
310
E2E2E2E2E2E2E2E2E2E2E2E2E2E2E2E2E2E2E2E2E2E2E2E2E2E2E2E2E2E2E2E2E2E2E2E2E2E2E2E2E2E2E2E2E2E2E2E2E2E2E2E2E2E2E2E2E2E2E2E2E2E2E2E2E2E2E2E2E2E2E2E2E2E2E2E2E2E2E2E2E2E2E2E2E2E2E2E2E2E2E2E2E2E2E2E2E2E2E2E2E2E2E2E2E2E2E2E2E2E2E2E2E2E2E2E2E2E2E2E2E2E2E2E2E2E2E2
310
E2E2E2E2E2E2E2E2E2E2E2E2E2E2E2E2E2E2E2E2E2E2E2E2E2E2E2E2E2E2E2E2E2E2E2E2E2E2E2E2E2E2E2E2E2E2E2E2E2E2E2E2E2E2E2E2E2E2E2E2E2E2E2E2E2E2E2E2E2E2E2E2E2E2E2E2E2E2E2E2E2E2E2E2E2E2E2E2E2E2E2E2E2E2E2E2E2E2E2E2E2E2E2E2E2E2E2E2E2E2E2E2E2E2E2E2E2E2E2E2E2E2E2E2E2E2E2
310
E2E2E2E2E2E2E2E2E2E2E2E2E2E2E2E2E2E2E2E2E2E2E2E2E2E2E2E2E2E2E2E2E2E2E2E2E2E2E2E2E2E2E2E2E2E2E2E2E2E2E2E2E2E2E2E2E2E2E2E2E2E2E2E2E2E2E2E2E2E2E2E2E2E2E2E2E2E2E2E2E2E2E2E2E2E2E2E2E2E2E2E2E2E2E2E2E2E2E2E2E2E2E2E2E2E2E2E2E2E2E2E2E2E2E2E2E2E2E2E2E2E2E2E2E2E2E2
310
E2E2E2E2E2E2E2E2E2E2E2E2E2E2E2E2E2E2E2E2E2E2E2E2E2E2E2E2E2E2E2E2E2E2E2E2E2E2E2E2E2E2E2E2E2E2E2E2E2E2E2E2E2E2E2E2E2E2E2E2E2E2E2E2E2E2E2E2E2E2E2E2E2E2E2E2E2E2E2E2E2E2E2E2E2E2E2E2E2E2E2E2E2E2E2E2E2E2E2E2E2E2E2E2E2E2E2E2E2E2E2E2E2E2E2E2E2E2E2E2E2E2E2E2E2E2E2
310
E2E2E2E2E2E2E2E2E2E2E2E2E2E2E2E2E2E2E2E2E2E2E2E2E2E2E2E2E2E2E2E2E2E2E2E2E2E2E2E2E2E2E2E2E2E2E2E2E2E2E2E2E2E2E2E2E2E2E2E2E2E2E2E2E2E2E2E2E2E2E2E2E2E2E2E2E2E2E2E2E2E2E2E2E2E2E2E2E2E2E2E2E2E2E2E2E2E2E2E2E2E2E2E2E2E2E2E2E2E2E2E2E2E2E2E2E2E2E2E2E2E2E2E2E2E2E2
310
E2E2E2E2E2E2E2E2E2E2E2E2E2E2E2E2E2E2E2E2E2E2E2E2E2E2E2E2E2E2E2E2E2E2E2E2E2E2E2E2E2E2E2E2E2E2E2E2E2E2E2E2E2E2E2E2E2E2E2E2E2E2E2E2E2E2E2E2E2E2E2E2E2E2E2E2E2E2E2E2E2E2E2E2E2E2E2E2E2E2E2E2E2E2E2E2E2E2E2E2E2E2E2E2E2E2E2E2E2E2E2E2E2E2E2E2E2E2E2E2E2E2E2E2E2E2E2
310
E2E2E2E2E2E2E2E2E2E2E2E2E2E2E2E2E2E2E2E2E2E2E2E2E2E2E2E2E2E2E2E2E2E2E2E2E2E2E2E2E2E2E2E2E2E2E2E2E2E2E2E2E2E2E2E2E2E2E2E2E2E2E2E2E2E2E2E2E2E2E2E2E2E2E2E2E2E2E2E2E2E2E2E2E2E2E2E2E2E2E2E2E2E2E2E2E2E2E2E2E2E2E2E2E2E2E2E2E2E2E2E2E2E2E2E2E2E2E2E2E2E2E2E2E2E2E2
310
E2E2E2E2E2E2E2E2E2E2E2E2E2E2E2E2E2E2E2E2E2E2E2E2E2E2E2E2E2E2E2E2E2E2E2E2E2E2E2E2E2E2E2E2E2E2E2E2E2E2E2E2E2E2E2E2E2E2E2E2E2E2E2E2E2E2E2E2E2E2E2E2E2E2E2E2E2E2E2E2E2E2E2E2E2E2E2E2E2E2E2E2E2E2E2E2E2E2E2E2E2E2E2E2E2E2E2E2E2E2E2E2E2E2E2E2E2E2E2E2E2E2E2E2E2E2E2
310
E2E2E2E2E2E2E2E2E2E2E2E2E2E2E2E2E2E2E2E2E2E2E2E2E2E2E2E2E2E2E2E2E2E2E2E2E2E2E2E2E2E2E2E2E2E2E2E2E2E2E2E2E2E2E2E2E2E2E2E2E2E2E2E2E2E2E2E2E2E2E2E2E2E2E2E2E2E2E2E2E2E2E2E2E2E2E2E2E2E2E2E2E2E2E2E2E2E2E2E2E2E2E2E2E2E2E2E2E2E2E2E2E2E2E2E2E2E2E2E2E2E2E2E2E2E2E2
310
E2E2E2E2E2E2E2E2E2E2E2E2E2E2E2E2E2E2E2E2E2E2E2E2E2E2E2E2E2E2E2E2E2E2E2E2E2E2E2E2E2E2E2E2E2E2E2E2E2E2E2E2E2E2E2E2E2E2E2E2E2E2E2E2E2E2E2E2E2E2E2E2E2E2E2E2E2E2E2E2E2E2E2E2E2E2E2E2E2E2E2E2E2E2E2E2E2E2E2E2E2E2E2E2E2E2E2E2E2E2E2E2E2E2E2E2E2E2E2E2E2E2E2E2E2E2E2
310
E2E2E2E2E2E2E2E2E2E2E2E2E2E2E2E2E2E2E2E2E2E2E2E2E2E2E2E2E2E2E2E2E2E2E2E2E2E2E2E2E2E2E2E2E2E2E2E2E2E2E2E2E2E2E2E2E2E2E2E2E2E2E2E2E2E2E2E2E2E2E2E2E2E2E2E2E2E2E2E2E2E2E2E2E2E2E2E2E2E2E2E2E2E2E2E2E2E2E2E2E2E2E2E2E2E2E2E2E2E2E2E2E2E2E2E2E2E2E2E2E2E2E2E2E2E2E2
310
E2E2E2E2E2E2E2E2E2E2E2E2E2E2E2E2E2E2E2E2E2E2E2E2E2E2E2E2E2E2E2E2E2E2E2E2E2E2E2E2E2E2E2E2E2E2E2E2E2E2E2E2E2E2E2E2E2E2E2E2E2E2E2E2E2E2E2E2E2E2E2E2E2E2E2E2E2E2E2E2E2E2E2E2E2E2E2E2E2E2E2E2E2E2E2E2E2E2E2E2E2E2E2E2E2E2E2E2E2E2E2E2E2E2E2E2E2E2E2E2E2E2E2E2E2E2E2
310
E2E2E2E2E2E2E2E2E2E2E2E2E2E2E2E2E2E2E2E2E2E2E2E2E2E2E2E2E2E2E2E2E2E2E2E2E2E2E2E2E2E2E2E2E2E2E2E2E2E2E2E2E2E2E2E2E2E2E2E2E2E2E2E2E2E2E2E2E2E2E2E2E2E2E2E2E2E2E2E2E2E2E2E2E2E2E2E2E2E2E2E2E2E2E2E2E2E2E2E2E2E2E2E2E2E2E2E2E2E2E2E2E2E2E2E2E2E2E2E2E2E2E2E2E2E2E2
310
E2E2E2E2E2E2E2E2E2E2E2E2E2E2E2E2E2E2E2E2E2E2E2E2E2E2E2E2E2E2E2E2E2E2E2E2E2E2E2E2E2E2E2E2E2E2E2E2E2E2E2E2E2E2E2E2E2E2E2E2E2E2E2E2E2E2E2E2E2E2E2E2E2E2E2E2E2E2E2E2E2E2E2E2E2E2E2E2E2E2E2E2E2E2E2E2E2E2E2E2E2E2E2E2E2E2E2E2E2E2E2E2E2E2E2E2E2E2E2E2E2E2E2E2E2E2E2
310
E2E2E2E2E2E2E2E2E2E2E2E2E2E2E2E2E2E2E2E2E2E2E2E2E2E2E2E2E2E2E2E2E2E2E2E2E2E2E2E2E2E2E2E2E2E2E2E2E2E2E2E2E2E2E2E2E2E2E2E2E2E2E2E2E2E2E2E2E2E2E2E2E2E2E2E2E2E2E2E2E2E2E2E2E2E2E2E2E2E2E2E2E2E2E2E2E2E2E2E2E2E2E2E2E2E2E2E2E2E2E2E2E2E2E2E2E2E2E2E2E2E2E2E2E2E2E2
310
E2E2E2E2E2E2E2E2E2E2E2E2E2E2E2E2E2E2E2E2E2E2E2E2E2E2E2E2E2E2E2E2E2E2E2E2E2E2E2E2E2E2E2E2E2E2E2E2E2E2E2E2E2E2E2E2E2E2E2E2E2E2E2E2E2E2E2E2E2E2E2E2E2E2E2E2E2E2E2E2E2E2E2E2E2E2E2E2E2E2E2E2E2E2E2E2E2E2E2E2E2E2E2E2E2E2E2E2E2E2E2E2E2E2E2E2E2E2E2E2E2E2E2E2E2E2E2
310
E2E2E2E2E2E2E2E2E2E2E2E2E2E2E2E2E2E2E2E2E2E2E2E2E2E2E2E2E2E2E2E2E2E2E2E2E2E2E2E2E2E2E2E2E2E2E2E2E2E2E2E2E2E2E2E2E2E2E2E2E2E2E2E2E2E2E2E2E2E2E2E2E2E2E2E2E2E2E2E2E2E2E2E2E2E2E2E2E2E2E2E2E2E2E2E2E2E2E2E2E2E2E2E2E2E2E2E2E2E2E2E2E2E2E2E2E2E2E2E2E2E2E2E2E2E2E2
310
E2E2E2E2E2E2E2E2E2E2E2E2E2E2E2E2E2E2E2E2E2E2E2E2E2E2E2E2E2E2E2E2E2E2E2E2E2E2E2E2E2E2E2E2E2E2E2E2E2E2E2E2E2E2E2E2E2E2E2E2E2E2E2E2E2E2E2E2E2E2E2E2E2E2E2E2E2E2E2E2E2E2E2E2E2E2E2E2E2E2E2E2E2E2E2E2E2E2E2E2E2E2E2E2E2E2E2E2E2E2E2E2E2E2E2E2E2E2E2E2E2E2E2E2E2E2E2
310
E2E2E2E2E2E2E2E2E2E2E2E2E2E2E2E2E2E2E2E2E2E2E2E2E2E2E2E2E2E2E2E2E2E2E2E2E2E2E2E2E2E2E2E2E2E2E2E2E2E2E2E2E2E2E2E2E2E2E2E2E2E2E2E2E2E2E2E2E2E2E2E2E2E2E2E2E2E2E2E2E2E2E2E2E2E2E2E2E2E2E2E2E2E2E2E2E2E2E2E2E2E2E2E2E2E2E2E2E2E2E2E2E2E2E2E2E2E2E2E2E2E2E2E2E2E2E2
310
E2E2E2E2E2E2E2E2E2E2E2E2E2E2E2E2E2E2E2E2E2E2E2E2E2E2E2E2E2E2E2E2E2E2E2E2E2E2E2E2E2E2E2E2E2E2E2E2E2E2E2E2E2E2E2E2E2E2E2E2E2E2E2E2E2E2E2E2E2E2E2E2E2E2E2E2E2E2E2E2E2E2E2E2E2E2E2E2E2E2E2E2E2E2E2E2E2E2E2E2E2E2E2E2E2E2E2E2E2E2E2E2E2E2E2E2E2E2E2E2E2E2E2E2E2E2E2
310
E2E2E2E2E2E2E2E2E2E2E2E2E2E2E2E2E2E2E2E2E2E2E2E2E2E2E2E2E2E2E2E2E2E2E2E2E2E2E2E2E2E2E2E2E2E2E2E2E2E2E2E2E2E2E2E2E2E2E2E2E2E2E2E2E2E2E2E2E2E2E2E2E2E2E2E2E2E2E2E2E2E2E2E2E2E2E2E2E2E2E2E2E2E2E2E2E2E2E2E2E2E2E2E2E2E2E2E2E2E2E2E2E2E2E2E2E2E2E2E2E2E2E2E2E2E2E2
310
E2E2E2E2E2E2E2E2E2E2E2E2E2E2E2E2E2E2E2E2E2E2E2E2E2E2E2E2E2E2E2E2E2E2E2E2E2E2E2E2E2E2E2E2E2E2E2E2E2E2E2E2E2E2E2E2E2E2E2E2E2E2E2E2E2E2E2E2E2E2E2E2E2E2E2E2E2E2E2E2E2E2E2E2E2E2E2E2E2E2E2E2E2E2E2E2E2E2E2E2E2E2E2E2E2E2E2E2E2E2E2E2E2E2E2E2E2E2E2E2E2E2E2E2E2E2E2
310
E2E2E2E2E2E2E2E2E2E2E2E2E2E2E2E2E2E2E2E2E2E2E2E2E2E2E2E2E2E2E2E2E2E2E2E2E2E2E2E2E2E2E2E2E2E2E2E2E2E2E2E2E2E2E2E2E2E2E2E2E2E2E2E2E2E2E2E2E2E2E2E2E2E2E2E2E2E2E2E2
  0
XRECORD
  5
134E
102
{ACAD_REACTORS
330
134D
102
}
330
134D
100
AcDbXrecord
280
     1
102
MATERIAL
148
0.0
149
0.0
149
0.0
 93
        0
 94
       63
282
     0
 72
     1
 77
     1
171
     1
175
     1
179
     1
273
     0
  0
XRECORD
  5
134C
102
{ACAD_REACTORS
330
134B
102
}
330
134B
100
AcDbXrecord
280
     1
102
MATERIAL
148
0.0
149
0.0
149
0.0
 93
        0
 94
       63
282
     0
 72
     1
 77
     1
171
     1
175
     1
179
     1
273
     0
  0
XRECORD
  5
134F
102
{ACAD_REACTORS
330
110
102
}
330
110
100
AcDbXrecord
280
     1
102
MATERIAL
148
0.0
149
0.0
149
0.0
 93
        0
 94
       63
282
     0
 72
     1
 77
     1
171
     1
175
     1
179
     1
273
     0
  0
XRECORD
  5
112
102
{ACAD_REACTORS
330
110
102
}
330
110
100
AcDbXrecord
280
     1
270
     1
271
     1
  0
XRECORD
  5
111
102
{ACAD_REACTORS
330
110
102
}
330
110
100
AcDbXrecord
280
     1
270
     1
271
     1
  0
XRECORD
  5
113
102
{ACAD_REACTORS
330
110
102
}
330
110
100
AcDbXrecord
280
     1
270
     1
271
     1
  0
XRECORD
  5
114
102
{ACAD_REACTORS
330
110
102
}
330
110
100
AcDbXrecord
280
     1
270
     1
271
     1
  0
CELLSTYLEMAP
  5
1348
102
{ACAD_REACTORS
330
129D
102
}
330
129D
100
AcDbCellStyleMap
 90
        3
300
CELLSTYLE
  1
TABLEFORMAT_BEGIN
 90
        5
170
     1
 91
        0
 92
    32768
 62
   257
 93
        1
300
CONTENTFORMAT
  1
CONTENTFORMAT_BEGIN
 90
        0
 91
        0
 92
      512
 93
        0
300

 40
0.0
140
1.0
 94
        5
 62
     0
340
180
144
0.5
309
CONTENTFORMAT_END
171
     0
 94
        6
 95
        1
302
GRIDFORMAT
  1
GRIDFORMAT_BEGIN
 90
        0
 91
        1
 62
     0
 92
       -2
340
0
 93
        1
 40
0.045
309
GRIDFORMAT_END
 95
        2
302
GRIDFORMAT
  1
GRIDFORMAT_BEGIN
 90
        0
 91
        1
 62
     0
 92
       -2
340
0
 93
        1
 40
0.045
309
GRIDFORMAT_END
 95
        4
302
GRIDFORMAT
  1
GRIDFORMAT_BEGIN
 90
        0
 91
        1
 62
     0
 92
       -2
340
0
 93
        1
 40
0.045
309
GRIDFORMAT_END
 95
        8
302
GRIDFORMAT
  1
GRIDFORMAT_BEGIN
 90
        0
 91
        1
 62
     0
 92
       -2
340
0
 93
        1
 40
0.045
309
GRIDFORMAT_END
 95
       16
302
GRIDFORMAT
  1
GRIDFORMAT_BEGIN
 90
        0
 91
        1
 62
     0
 92
       -2
340
0
 93
        1
 40
0.045
309
GRIDFORMAT_END
 95
       32
302
GRIDFORMAT
  1
GRIDFORMAT_BEGIN
 90
        0
 91
        1
 62
     0
 92
       -2
340
0
 93
        1
 40
0.045
309
GRIDFORMAT_END
309
TABLEFORMAT_END
  1
CELLSTYLE_BEGIN
 90
        1
 91
        1
300
_TITLE
309
CELLSTYLE_END
300
CELLSTYLE
  1
TABLEFORMAT_BEGIN
 90
        5
170
     1
 91
        0
 92
        0
 62
   257
 93
        1
300
CONTENTFORMAT
  1
CONTENTFORMAT_BEGIN
 90
        0
 91
        0
 92
      512
 93
        0
300

 40
0.0
140
1.0
 94
        4
 62
     0
340
180
144
0.4
309
CONTENTFORMAT_END
171
     0
 94
        6
 95
        1
302
GRIDFORMAT
  1
GRIDFORMAT_BEGIN
 90
        0
 91
        1
 62
     0
 92
       -2
340
0
 93
        1
 40
0.045
309
GRIDFORMAT_END
 95
        2
302
GRIDFORMAT
  1
GRIDFORMAT_BEGIN
 90
        0
 91
        1
 62
     0
 92
       -2
340
0
 93
        1
 40
0.045
309
GRIDFORMAT_END
 95
        4
302
GRIDFORMAT
  1
GRIDFORMAT_BEGIN
 90
        0
 91
        1
 62
     0
 92
       -2
340
0
 93
        1
 40
0.045
309
GRIDFORMAT_END
 95
        8
302
GRIDFORMAT
  1
GRIDFORMAT_BEGIN
 90
        0
 91
        1
 62
     0
 92
       -2
340
0
 93
        1
 40
0.045
309
GRIDFORMAT_END
 95
       16
302
GRIDFORMAT
  1
GRIDFORMAT_BEGIN
 90
        0
 91
        1
 62
     0
 92
       -2
340
0
 93
        1
 40
0.045
309
GRIDFORMAT_END
 95
       32
302
GRIDFORMAT
  1
GRIDFORMAT_BEGIN
 90
        0
 91
        1
 62
     0
 92
       -2
340
0
 93
        1
 40
0.045
309
GRIDFORMAT_END
309
TABLEFORMAT_END
  1
CELLSTYLE_BEGIN
 90
        2
 91
        1
300
_HEADER
309
CELLSTYLE_END
300
CELLSTYLE
  1
TABLEFORMAT_BEGIN
 90
        5
170
     1
 91
        0
 92
        0
 62
   257
 93
        1
300
CONTENTFORMAT
  1
CONTENTFORMAT_BEGIN
 90
        0
 91
        0
 92
      512
 93
        0
300

 40
0.0
140
1.0
 94
        4
 62
     0
340
180
144
0.4
309
CONTENTFORMAT_END
171
     0
 94
        6
 95
        1
302
GRIDFORMAT
  1
GRIDFORMAT_BEGIN
 90
        0
 91
        1
 62
     0
 92
       -2
340
0
 93
        1
 40
0.045
309
GRIDFORMAT_END
 95
        2
302
GRIDFORMAT
  1
GRIDFORMAT_BEGIN
 90
        0
 91
        1
 62
     0
 92
       -2
340
0
 93
        1
 40
0.045
309
GRIDFORMAT_END
 95
        4
302
GRIDFORMAT
  1
GRIDFORMAT_BEGIN
 90
        0
 91
        1
 62
     0
 92
       -2
340
0
 93
        1
 40
0.045
309
GRIDFORMAT_END
 95
        8
302
GRIDFORMAT
  1
GRIDFORMAT_BEGIN
 90
        0
 91
        1
 62
     0
 92
       -2
340
0
 93
        1
 40
0.045
309
GRIDFORMAT_END
 95
       16
302
GRIDFORMAT
  1
GRIDFORMAT_BEGIN
 90
        0
 91
        1
 62
     0
 92
       -2
340
0
 93
        1
 40
0.045
309
GRIDFORMAT_END
 95
       32
302
GRIDFORMAT
  1
GRIDFORMAT_BEGIN
 90
        0
 91
        1
 62
     0
 92
       -2
340
0
 93
        1
 40
0.045
309
GRIDFORMAT_END
309
TABLEFORMAT_END
  1
CELLSTYLE_BEGIN
 90
        3
 91
        2
300
_DATA
309
CELLSTYLE_END
  0
XRECORD
  5
1376
102
{ACAD_REACTORS
330
129D
102
}
330
129D
100
AcDbXrecord
280
     1
102
ACAD_ROUNDTRIP_PRE2007_TABLESTYLE
 90
      512
 91
        0
  1

 92
      512
 93
        0
  2

 94
      512
 95
        0
  3

  0
CELLSTYLEMAP
  5
1347
102
{ACAD_REACTORS
330
104
102
}
330
104
100
AcDbCellStyleMap
 90
        3
300
CELLSTYLE
  1
TABLEFORMAT_BEGIN
 90
        5
170
     1
 91
        0
 92
    32768
 62
   257
 93
        1
300
CONTENTFORMAT
  1
CONTENTFORMAT_BEGIN
 90
        0
 91
        0
 92
      512
 93
        0
300

 40
0.0
140
1.0
 94
        5
 62
     0
340
11
144
0.25
309
CONTENTFORMAT_END
171
     1
301
MARGIN
  1
CELLMARGIN_BEGIN
 40
0.06
 40
0.06
 40
0.06
 40
0.06
 40
0.18
 40
0.18
309
CELLMARGIN_END
 94
        6
 95
        1
302
GRIDFORMAT
  1
GRIDFORMAT_BEGIN
 90
        0
 91
        1
 62
     0
 92
       -2
340
0
 93
        0
 40
0.045
309
GRIDFORMAT_END
 95
        2
302
GRIDFORMAT
  1
GRIDFORMAT_BEGIN
 90
        0
 91
        1
 62
     0
 92
       -2
340
0
 93
        0
 40
0.045
309
GRIDFORMAT_END
 95
        4
302
GRIDFORMAT
  1
GRIDFORMAT_BEGIN
 90
        0
 91
        1
 62
     0
 92
       -2
340
0
 93
        0
 40
0.045
309
GRIDFORMAT_END
 95
        8
302
GRIDFORMAT
  1
GRIDFORMAT_BEGIN
 90
        0
 91
        1
 62
     0
 92
       -2
340
0
 93
        0
 40
0.045
309
GRIDFORMAT_END
 95
       16
302
GRIDFORMAT
  1
GRIDFORMAT_BEGIN
 90
        0
 91
        1
 62
     0
 92
       -2
340
0
 93
        0
 40
0.045
309
GRIDFORMAT_END
 95
       32
302
GRIDFORMAT
  1
GRIDFORMAT_BEGIN
 90
        0
 91
        1
 62
     0
 92
       -2
340
0
 93
        0
 40
0.045
309
GRIDFORMAT_END
309
TABLEFORMAT_END
  1
CELLSTYLE_BEGIN
 90
        1
 91
        1
300
_TITLE
309
CELLSTYLE_END
300
CELLSTYLE
  1
TABLEFORMAT_BEGIN
 90
        5
170
     1
 91
        0
 92
        0
 62
   257
 93
        1
300
CONTENTFORMAT
  1
CONTENTFORMAT_BEGIN
 90
        0
 91
        0
 92
      512
 93
        0
300

 40
0.0
140
1.0
 94
        5
 62
     0
340
11
144
0.18
309
CONTENTFORMAT_END
171
     1
301
MARGIN
  1
CELLMARGIN_BEGIN
 40
0.06
 40
0.06
 40
0.06
 40
0.06
 40
0.18
 40
0.18
309
CELLMARGIN_END
 94
        6
 95
        1
302
GRIDFORMAT
  1
GRIDFORMAT_BEGIN
 90
        0
 91
        1
 62
     0
 92
       -2
340
0
 93
        0
 40
0.045
309
GRIDFORMAT_END
 95
        2
302
GRIDFORMAT
  1
GRIDFORMAT_BEGIN
 90
        0
 91
        1
 62
     0
 92
       -2
340
0
 93
        0
 40
0.045
309
GRIDFORMAT_END
 95
        4
302
GRIDFORMAT
  1
GRIDFORMAT_BEGIN
 90
        0
 91
        1
 62
     0
 92
       -2
340
0
 93
        0
 40
0.045
309
GRIDFORMAT_END
 95
        8
302
GRIDFORMAT
  1
GRIDFORMAT_BEGIN
 90
        0
 91
        1
 62
     0
 92
       -2
340
0
 93
        0
 40
0.045
309
GRIDFORMAT_END
 95
       16
302
GRIDFORMAT
  1
GRIDFORMAT_BEGIN
 90
        0
 91
        1
 62
     0
 92
       -2
340
0
 93
        0
 40
0.045
309
GRIDFORMAT_END
 95
       32
302
GRIDFORMAT
  1
GRIDFORMAT_BEGIN
 90
        0
 91
        1
 62
     0
 92
       -2
340
0
 93
        0
 40
0.045
309
GRIDFORMAT_END
309
TABLEFORMAT_END
  1
CELLSTYLE_BEGIN
 90
        2
 91
        1
300
_HEADER
309
CELLSTYLE_END
300
CELLSTYLE
  1
TABLEFORMAT_BEGIN
 90
        5
170
     1
 91
        0
 92
        0
 62
   257
 93
        1
300
CONTENTFORMAT
  1
CONTENTFORMAT_BEGIN
 90
        0
 91
        0
 92
      512
 93
        0
300

 40
0.0
140
1.0
 94
        2
 62
     0
340
11
144
0.18
309
CONTENTFORMAT_END
171
     1
301
MARGIN
  1
CELLMARGIN_BEGIN
 40
0.06
 40
0.06
 40
0.06
 40
0.06
 40
0.18
 40
0.18
309
CELLMARGIN_END
 94
        6
 95
        1
302
GRIDFORMAT
  1
GRIDFORMAT_BEGIN
 90
        0
 91
        1
 62
     0
 92
       -2
340
0
 93
        0
 40
0.045
309
GRIDFORMAT_END
 95
        2
302
GRIDFORMAT
  1
GRIDFORMAT_BEGIN
 90
        0
 91
        1
 62
     0
 92
       -2
340
0
 93
        0
 40
0.045
309
GRIDFORMAT_END
 95
        4
302
GRIDFORMAT
  1
GRIDFORMAT_BEGIN
 90
        0
 91
        1
 62
     0
 92
       -2
340
0
 93
        0
 40
0.045
309
GRIDFORMAT_END
 95
        8
302
GRIDFORMAT
  1
GRIDFORMAT_BEGIN
 90
        0
 91
        1
 62
     0
 92
       -2
340
0
 93
        0
 40
0.045
309
GRIDFORMAT_END
 95
       16
302
GRIDFORMAT
  1
GRIDFORMAT_BEGIN
 90
        0
 91
        1
 62
     0
 92
       -2
340
0
 93
        0
 40
0.045
309
GRIDFORMAT_END
 95
       32
302
GRIDFORMAT
  1
GRIDFORMAT_BEGIN
 90
        0
 91
        1
 62
     0
 92
       -2
340
0
 93
        0
 40
0.045
309
GRIDFORMAT_END
309
TABLEFORMAT_END
  1
CELLSTYLE_BEGIN
 90
        3
 91
        2
300
_DATA
309
CELLSTYLE_END
  0
XRECORD
  5
134A
102
{ACAD_REACTORS
330
104
102
}
330
104
100
AcDbXrecord
280
     1
102
ACAD_ROUNDTRIP_PRE2007_TABLESTYLE
 90
      512
 91
        0
  1

 92
      512
 93
        0
  2

 94
      512
 95
        0
  3

  0
XRECORD
  5
135B
102
{ACAD_REACTORS
330
135A
102
}
330
135A
100
AcDbXrecord
280
     1
102
RTVSPropertyOp0
 70
     1
102
RTVSPropertyOp1
 70
     1
102
RTVSPropertyOp2
 70
     1
102
RTVSPropertyOp3
 70
     1
102
RTVSPropertyOp4
 70
     1
102
RTVSPropertyOp5
 70
     1
102
RTVSPropertyOp6
 70
     1
102
RTVSPropertyOp7
 70
     1
102
RTVSPropertyOp8
 70
     1
102
RTVSPropertyOp9
 70
     1
102
RTVSPropertyOp10
 70
     1
102
RTVSPropertyOp11
 70
     1
102
RTVSPropertyOp12
 70
     1
102
RTVSPropertyOp13
 70
     1
102
RTVSPropertyOp14
 70
     1
102
RTVSPropertyOp15
 70
     1
102
RTVSPropertyOp16
 70
     1
102
RTVSPropertyOp17
 70
     1
102
RTVSPropertyOp18
 70
     1
102
RTVSPropertyOp19
 70
     1
102
RTVSPropertyOp20
 70
     1
102
RTVSPropertyOp21
 70
     1
102
RTVSPropertyOp22
 70
     1
102
RTVSPropertyOp23
 70
     1
102
RTVSPropertyOp24
 70
     1
102
RTVSPropertyOp25
 70
     1
102
RTVSPropertyOp26
 70
     1
102
RTVSPropertyOp27
 70
     1
  0
XRECORD
  5
135F
102
{ACAD_REACTORS
330
135E
102
}
330
135E
100
AcDbXrecord
280
     1
102
RTVSPropertyOp0
 70
     1
102
RTVSPropertyOp1
 70
     1
102
RTVSPropertyOp2
 70
     1
102
RTVSPropertyOp3
 70
     1
102
RTVSPropertyOp4
 70
     1
102
RTVSPropertyOp5
 70
     1
102
RTVSPropertyOp6
 70
     1
102
RTVSPropertyOp7
 70
     1
102
RTVSPropertyOp8
 70
     1
102
RTVSPropertyOp9
 70
     1
102
RTVSPropertyOp10
 70
     1
102
RTVSPropertyOp11
 70
     1
102
RTVSPropertyOp12
 70
     1
102
RTVSPropertyOp13
 70
     1
102
RTVSPropertyOp14
 70
     1
102
RTVSPropertyOp15
 70
     1
102
RTVSPropertyOp16
 70
     1
102
RTVSPropertyOp17
 70
     1
102
RTVSPropertyOp18
 70
     1
102
RTVSPropertyOp19
 70
     1
102
RTVSPropertyOp20
 70
     1
102
RTVSPropertyOp21
 70
     1
102
RTVSPropertyOp22
 70
     1
102
RTVSPropertyOp23
 70
     1
102
RTVSPropertyOp24
 70
     1
102
RTVSPropertyOp25
 70
     1
102
RTVSPropertyOp26
 70
     1
102
RTVSPropertyOp27
 70
     1
  0
XRECORD
  5
135D
102
{ACAD_REACTORS
330
135C
102
}
330
135C
100
AcDbXrecord
280
     1
102
RTVSPropertyOp0
 70
     1
102
RTVSPropertyOp1
 70
     1
102
RTVSPropertyOp2
 70
     1
102
RTVSPropertyOp3
 70
     1
102
RTVSPropertyOp4
 70
     1
102
RTVSPropertyOp5
 70
     1
102
RTVSPropertyOp6
 70
     1
102
RTVSPropertyOp7
 70
     1
102
RTVSPropertyOp8
 70
     1
102
RTVSPropertyOp9
 70
     1
102
RTVSPropertyOp10
 70
     1
102
RTVSPropertyOp11
 70
     1
102
RTVSPropertyOp12
 70
     1
102
RTVSPropertyOp13
 70
     1
102
RTVSPropertyOp14
 70
     1
102
RTVSPropertyOp15
 70
     1
102
RTVSPropertyOp16
 70
     1
102
RTVSPropertyOp17
 70
     1
102
RTVSPropertyOp18
 70
     1
102
RTVSPropertyOp19
 70
     1
102
RTVSPropertyOp20
 70
     1
102
RTVSPropertyOp21
 70
     1
102
RTVSPropertyOp22
 70
     1
102
RTVSPropertyOp23
 70
     1
102
RTVSPropertyOp24
 70
     1
102
RTVSPropertyOp25
 70
     1
102
RTVSPropertyOp26
 70
     1
102
RTVSPropertyOp27
 70
     1
  0
XRECORD
  5
1359
102
{ACAD_REACTORS
330
1358
102
}
330
1358
100
AcDbXrecord
280
     1
102
RTVSPropertyOp0
 70
     1
102
RTVSPropertyOp1
 70
     1
102
RTVSPropertyOp2
 70
     1
102
RTVSPropertyOp3
 70
     1
102
RTVSPropertyOp4
 70
     1
102
RTVSPropertyOp5
 70
     1
102
RTVSPropertyOp6
 70
     1
102
RTVSPropertyOp7
 70
     1
102
RTVSPropertyOp8
 70
     1
102
RTVSPropertyOp9
 70
     1
102
RTVSPropertyOp10
 70
     1
102
RTVSPropertyOp11
 70
     1
102
RTVSPropertyOp12
 70
     1
102
RTVSPropertyOp13
 70
     1
102
RTVSPropertyOp14
 70
     1
102
RTVSPropertyOp15
 70
     1
102
RTVSPropertyOp16
 70
     1
102
RTVSPropertyOp17
 70
     1
102
RTVSPropertyOp18
 70
     1
102
RTVSPropertyOp19
 70
     1
102
RTVSPropertyOp20
 70
     1
102
RTVSPropertyOp21
 70
     1
102
RTVSPropertyOp22
 70
     1
102
RTVSPropertyOp23
 70
     1
102
RTVSPropertyOp24
 70
     1
102
RTVSPropertyOp25
 70
     1
102
RTVSPropertyOp26
 70
     1
102
RTVSPropertyOp27
 70
     1
  0
XRECORD
  5
1367
102
{ACAD_REACTORS
330
1366
102
}
330
1366
100
AcDbXrecord
280
     1
102
RTVSPropertyOp0
 70
     1
102
RTVSPropertyOp1
 70
     1
102
RTVSPropertyOp2
 70
     1
102
RTVSPropertyOp3
 70
     1
102
RTVSPropertyOp4
 70
     1
102
RTVSPropertyOp5
 70
     1
102
RTVSPropertyOp6
 70
     1
102
RTVSPropertyOp7
 70
     1
102
RTVSPropertyOp8
 70
     1
102
RTVSPropertyOp9
 70
     1
102
RTVSPropertyOp10
 70
     1
102
RTVSPropertyOp11
 70
     1
102
RTVSPropertyOp12
 70
     1
102
RTVSPropertyOp13
 70
     1
102
RTVSPropertyOp14
 70
     1
102
RTVSPropertyOp15
 70
     1
102
RTVSPropertyOp16
 70
     1
102
RTVSPropertyOp17
 70
     1
102
RTVSPropertyOp18
 70
     1
102
RTVSPropertyOp19
 70
     1
102
RTVSPropertyOp20
 70
     1
102
RTVSPropertyOp21
 70
     1
102
RTVSPropertyOp22
 70
     1
102
RTVSPropertyOp23
 70
     1
102
RTVSPropertyOp24
 70
     1
102
RTVSPropertyOp25
 70
     1
102
RTVSPropertyOp26
 70
     1
102
RTVSPropertyOp27
 70
     1
  0
XRECORD
  5
136F
102
{ACAD_REACTORS
330
136E
102
}
330
136E
100
AcDbXrecord
280
     1
102
RTVSPropertyOp0
 70
     1
102
RTVSPropertyOp1
 70
     1
102
RTVSPropertyOp2
 70
     1
102
RTVSPropertyOp3
 70
     1
102
RTVSPropertyOp4
 70
     1
102
RTVSPropertyOp5
 70
     1
102
RTVSPropertyOp6
 70
     1
102
RTVSPropertyOp7
 70
     1
102
RTVSPropertyOp8
 70
     1
102
RTVSPropertyOp9
 70
     1
102
RTVSPropertyOp10
 70
     1
102
RTVSPropertyOp11
 70
     1
102
RTVSPropertyOp12
 70
     1
102
RTVSPropertyOp13
 70
     1
102
RTVSPropertyOp14
 70
     1
102
RTVSPropertyOp15
 70
     1
102
RTVSPropertyOp16
 70
     1
102
RTVSPropertyOp17
 70
     1
102
RTVSPropertyOp18
 70
     1
102
RTVSPropertyOp19
 70
     1
102
RTVSPropertyOp20
 70
     1
102
RTVSPropertyOp21
 70
     1
102
RTVSPropertyOp22
 70
     1
102
RTVSPropertyOp23
 70
     1
102
RTVSPropertyOp24
 70
     1
102
RTVSPropertyOp25
 70
     1
102
RTVSPropertyOp26
 70
     1
102
RTVSPropertyOp27
 70
     1
  0
XRECORD
  5
1361
102
{ACAD_REACTORS
330
1360
102
}
330
1360
100
AcDbXrecord
280
     1
102
RTVSPropertyOp0
 70
     1
102
RTVSPropertyOp1
 70
     1
102
RTVSPropertyOp2
 70
     1
102
RTVSPropertyOp3
 70
     1
102
RTVSPropertyOp4
 70
     1
102
RTVSPropertyOp5
 70
     1
102
RTVSPropertyOp6
 70
     1
102
RTVSPropertyOp7
 70
     1
102
RTVSPropertyOp8
 70
     1
102
RTVSPropertyOp9
 70
     1
102
RTVSPropertyOp10
 70
     1
102
RTVSPropertyOp11
 70
     1
102
RTVSPropertyOp12
 70
     1
102
RTVSPropertyOp13
 70
     1
102
RTVSPropertyOp14
 70
     1
102
RTVSPropertyOp15
 70
     1
102
RTVSPropertyOp16
 70
     1
102
RTVSPropertyOp17
 70
     1
102
RTVSPropertyOp18
 70
     1
102
RTVSPropertyOp19
 70
     1
102
RTVSPropertyOp20
 70
     1
102
RTVSPropertyOp21
 70
     1
102
RTVSPropertyOp22
 70
     1
102
RTVSPropertyOp23
 70
     1
102
RTVSPropertyOp24
 70
     1
102
RTVSPropertyOp25
 70
     1
102
RTVSPropertyOp26
 70
     1
102
RTVSPropertyOp27
 70
     1
  0
XRECORD
  5
1365
102
{ACAD_REACTORS
330
1364
102
}
330
1364
100
AcDbXrecord
280
     1
102
RTVSPropertyOp0
 70
     1
102
RTVSPropertyOp1
 70
     1
102
RTVSPropertyOp2
 70
     1
102
RTVSPropertyOp3
 70
     1
102
RTVSPropertyOp4
 70
     1
102
RTVSPropertyOp5
 70
     1
102
RTVSPropertyOp6
 70
     1
102
RTVSPropertyOp7
 70
     1
102
RTVSPropertyOp8
 70
     1
102
RTVSPropertyOp9
 70
     1
102
RTVSPropertyOp10
 70
     1
102
RTVSPropertyOp11
 70
     1
102
RTVSPropertyOp12
 70
     1
102
RTVSPropertyOp13
 70
     1
102
RTVSPropertyOp14
 70
     1
102
RTVSPropertyOp15
 70
     1
102
RTVSPropertyOp16
 70
     1
102
RTVSPropertyOp17
 70
     1
102
RTVSPropertyOp18
 70
     1
102
RTVSPropertyOp19
 70
     1
102
RTVSPropertyOp20
 70
     1
102
RTVSPropertyOp21
 70
     1
102
RTVSPropertyOp22
 70
     1
102
RTVSPropertyOp23
 70
     1
102
RTVSPropertyOp24
 70
     1
102
RTVSPropertyOp25
 70
     1
102
RTVSPropertyOp26
 70
     1
102
RTVSPropertyOp27
 70
     1
  0
XRECORD
  5
1375
102
{ACAD_REACTORS
330
1374
102
}
330
1374
100
AcDbXrecord
280
     1
102
RTVSPropertyOp0
 70
     0
102
RTVSPropertyOp1
 70
     0
102
RTVSPropertyOp2
 70
     0
102
RTVSPropertyOp3
 70
     0
102
RTVSPropertyOp4
 70
     0
102
RTVSPropertyOp5
 70
     0
102
RTVSPropertyOp6
 70
     0
102
RTVSPropertyOp7
 70
     0
102
RTVSPropertyOp8
 70
     0
102
RTVSPropertyOp9
 70
     0
102
RTVSPropertyOp10
 70
     0
102
RTVSPropertyOp11
 70
     0
102
RTVSPropertyOp12
 70
     0
102
RTVSPropertyOp13
 70
     0
102
RTVSPropertyOp14
 70
     2
102
RTVSPropertyOp15
 70
     0
102
RTVSPropertyOp16
 70
     0
102
RTVSPropertyOp17
 70
     0
102
RTVSPropertyOp18
 70
     0
102
RTVSPropertyOp19
 70
     0
102
RTVSPropertyOp20
 70
     0
102
RTVSPropertyOp21
 70
     0
102
RTVSPropertyOp22
 70
     0
102
RTVSPropertyOp23
 70
     0
102
RTVSPropertyOp24
 70
     0
102
RTVSPropertyOp25
 70
     0
102
RTVSPropertyOp26
 70
     0
102
RTVSPropertyOp27
 70
     0
  0
XRECORD
  5
136D
102
{ACAD_REACTORS
330
136C
102
}
330
136C
100
AcDbXrecord
280
     1
102
RTVSPropertyOp0
 70
     1
102
RTVSPropertyOp1
 70
     1
102
RTVSPropertyOp2
 70
     1
102
RTVSPropertyOp3
 70
     1
102
RTVSPropertyOp4
 70
     1
102
RTVSPropertyOp5
 70
     1
102
RTVSPropertyOp6
 70
     1
102
RTVSPropertyOp7
 70
     1
102
RTVSPropertyOp8
 70
     1
102
RTVSPropertyOp9
 70
     1
102
RTVSPropertyOp10
 70
     1
102
RTVSPropertyOp11
 70
     1
102
RTVSPropertyOp12
 70
     1
102
RTVSPropertyOp13
 70
     1
102
RTVSPropertyOp14
 70
     1
102
RTVSPropertyOp15
 70
     1
102
RTVSPropertyOp16
 70
     1
102
RTVSPropertyOp17
 70
     1
102
RTVSPropertyOp18
 70
     1
102
RTVSPropertyOp19
 70
     1
102
RTVSPropertyOp20
 70
     1
102
RTVSPropertyOp21
 70
     1
102
RTVSPropertyOp22
 70
     1
102
RTVSPropertyOp23
 70
     1
102
RTVSPropertyOp24
 70
     1
102
RTVSPropertyOp25
 70
     1
102
RTVSPropertyOp26
 70
     1
102
RTVSPropertyOp27
 70
     1
  0
XRECORD
  5
1351
102
{ACAD_REACTORS
330
1350
102
}
330
1350
100
AcDbXrecord
280
     1
102
RTVSPropertyOp0
 70
     1
102
RTVSPropertyOp1
 70
     1
102
RTVSPropertyOp2
 70
     1
102
RTVSPropertyOp3
 70
     1
102
RTVSPropertyOp4
 70
     1
102
RTVSPropertyOp5
 70
     1
102
RTVSPropertyOp6
 70
     1
102
RTVSPropertyOp7
 70
     1
102
RTVSPropertyOp8
 70
     1
102
RTVSPropertyOp9
 70
     1
102
RTVSPropertyOp10
 70
     1
102
RTVSPropertyOp11
 70
     1
102
RTVSPropertyOp12
 70
     1
102
RTVSPropertyOp13
 70
     1
102
RTVSPropertyOp14
 70
     1
102
RTVSPropertyOp15
 70
     1
102
RTVSPropertyOp16
 70
     1
102
RTVSPropertyOp17
 70
     1
102
RTVSPropertyOp18
 70
     1
102
RTVSPropertyOp19
 70
     1
102
RTVSPropertyOp20
 70
     1
102
RTVSPropertyOp21
 70
     1
102
RTVSPropertyOp22
 70
     1
102
RTVSPropertyOp23
 70
     1
102
RTVSPropertyOp24
 70
     1
102
RTVSPropertyOp25
 70
     1
102
RTVSPropertyOp26
 70
     1
102
RTVSPropertyOp27
 70
     1
  0
XRECORD
  5
1353
102
{ACAD_REACTORS
330
1352
102
}
330
1352
100
AcDbXrecord
280
     1
102
RTVSPropertyOp0
 70
     1
102
RTVSPropertyOp1
 70
     1
102
RTVSPropertyOp2
 70
     1
102
RTVSPropertyOp3
 70
     1
102
RTVSPropertyOp4
 70
     1
102
RTVSPropertyOp5
 70
     1
102
RTVSPropertyOp6
 70
     1
102
RTVSPropertyOp7
 70
     1
102
RTVSPropertyOp8
 70
     1
102
RTVSPropertyOp9
 70
     1
102
RTVSPropertyOp10
 70
     1
102
RTVSPropertyOp11
 70
     1
102
RTVSPropertyOp12
 70
     1
102
RTVSPropertyOp13
 70
     1
102
RTVSPropertyOp14
 70
     1
102
RTVSPropertyOp15
 70
     1
102
RTVSPropertyOp16
 70
     1
102
RTVSPropertyOp17
 70
     1
102
RTVSPropertyOp18
 70
     1
102
RTVSPropertyOp19
 70
     1
102
RTVSPropertyOp20
 70
     1
102
RTVSPropertyOp21
 70
     1
102
RTVSPropertyOp22
 70
     1
102
RTVSPropertyOp23
 70
     1
102
RTVSPropertyOp24
 70
     1
102
RTVSPropertyOp25
 70
     1
102
RTVSPropertyOp26
 70
     1
102
RTVSPropertyOp27
 70
     1
  0
XRECORD
  5
1355
102
{ACAD_REACTORS
330
1354
102
}
330
1354
100
AcDbXrecord
280
     1
102
RTVSPropertyOp0
 70
     1
102
RTVSPropertyOp1
 70
     1
102
RTVSPropertyOp2
 70
     1
102
RTVSPropertyOp3
 70
     1
102
RTVSPropertyOp4
 70
     1
102
RTVSPropertyOp5
 70
     1
102
RTVSPropertyOp6
 70
     1
102
RTVSPropertyOp7
 70
     1
102
RTVSPropertyOp8
 70
     1
102
RTVSPropertyOp9
 70
     1
102
RTVSPropertyOp10
 70
     1
102
RTVSPropertyOp11
 70
     1
102
RTVSPropertyOp12
 70
     1
102
RTVSPropertyOp13
 70
     1
102
RTVSPropertyOp14
 70
     1
102
RTVSPropertyOp15
 70
     1
102
RTVSPropertyOp16
 70
     1
102
RTVSPropertyOp17
 70
     1
102
RTVSPropertyOp18
 70
     1
102
RTVSPropertyOp19
 70
     1
102
RTVSPropertyOp20
 70
     1
102
RTVSPropertyOp21
 70
     1
102
RTVSPropertyOp22
 70
     1
102
RTVSPropertyOp23
 70
     1
102
RTVSPropertyOp24
 70
     1
102
RTVSPropertyOp25
 70
     1
102
RTVSPropertyOp26
 70
     1
102
RTVSPropertyOp27
 70
     1
  0
XRECORD
  5
1357
102
{ACAD_REACTORS
330
1356
102
}
330
1356
100
AcDbXrecord
280
     1
102
RTVSPropertyOp0
 70
     1
102
RTVSPropertyOp1
 70
     1
102
RTVSPropertyOp2
 70
     1
102
RTVSPropertyOp3
 70
     1
102
RTVSPropertyOp4
 70
     1
102
RTVSPropertyOp5
 70
     1
102
RTVSPropertyOp6
 70
     1
102
RTVSPropertyOp7
 70
     1
102
RTVSPropertyOp8
 70
     1
102
RTVSPropertyOp9
 70
     1
102
RTVSPropertyOp10
 70
     1
102
RTVSPropertyOp11
 70
     1
102
RTVSPropertyOp12
 70
     1
102
RTVSPropertyOp13
 70
     1
102
RTVSPropertyOp14
 70
     1
102
RTVSPropertyOp15
 70
     1
102
RTVSPropertyOp16
 70
     1
102
RTVSPropertyOp17
 70
     1
102
RTVSPropertyOp18
 70
     1
102
RTVSPropertyOp19
 70
     1
102
RTVSPropertyOp20
 70
     1
102
RTVSPropertyOp21
 70
     1
102
RTVSPropertyOp22
 70
     1
102
RTVSPropertyOp23
 70
     1
102
RTVSPropertyOp24
 70
     1
102
RTVSPropertyOp25
 70
     1
102
RTVSPropertyOp26
 70
     1
102
RTVSPropertyOp27
 70
     1
  0
XRECORD
  5
1B0
102
{ACAD_REACTORS
330
1AF
102
}
330
1AF
100
AcDbXrecord
280
     1
102
RTVSPropertyOp28
 70
     1
102
RTVSPropertyOp29
 70
     1
102
RTVSPropertyOp30
 70
     1
102
RTVSPropertyOp31
 70
     1
102
RTVSPropertyOp32
 70
     1
102
RTVSPropertyOp0
 70
     1
102
RTVSPropertyOp1
 70
     1
102
RTVSPropertyOp2
 70
     1
102
RTVSPropertyOp3
 70
     1
102
RTVSPropertyOp4
 70
     1
102
RTVSPropertyOp5
 70
     1
102
RTVSPropertyOp6
 70
     1
102
RTVSPropertyOp7
 70
     1
102
RTVSPropertyOp8
 70
     1
102
RTVSPropertyOp9
 70
     1
102
RTVSPropertyOp10
 70
     1
102
RTVSPropertyOp11
 70
     1
102
RTVSPropertyOp12
 70
     1
102
RTVSPropertyOp13
 70
     1
102
RTVSPropertyOp14
 70
     1
102
RTVSPropertyOp15
 70
     1
102
RTVSPropertyOp16
 70
     1
102
RTVSPropertyOp17
 70
     1
102
RTVSPropertyOp18
 70
     1
102
RTVSPropertyOp19
 70
     1
102
RTVSPropertyOp20
 70
     1
102
RTVSPropertyOp21
 70
     1
102
RTVSPropertyOp22
 70
     1
102
RTVSPropertyOp23
 70
     1
102
RTVSPropertyOp24
 70
     1
102
RTVSPropertyOp25
 70
     1
102
RTVSPropertyOp26
 70
     1
102
RTVSPropertyOp27
 70
     1
  0
XRECORD
  5
1371
102
{ACAD_REACTORS
330
1370
102
}
330
1370
100
AcDbXrecord
280
     1
102
RTVSPropertyOp0
 70
     0
102
RTVSPropertyOp1
 70
     0
102
RTVSPropertyOp2
 70
     0
102
RTVSPropertyOp3
 70
     0
102
RTVSPropertyOp4
 70
     0
102
RTVSPropertyOp5
 70
     0
102
RTVSPropertyOp6
 70
     0
102
RTVSPropertyOp7
 70
     0
102
RTVSPropertyOp8
 70
     0
102
RTVSPropertyOp9
 70
     0
102
RTVSPropertyOp10
 70
     0
102
RTVSPropertyOp11
 70
     0
102
RTVSPropertyOp12
 70
     0
102
RTVSPropertyOp13
 70
     0
102
RTVSPropertyOp14
 70
     2
102
RTVSPropertyOp15
 70
     0
102
RTVSPropertyOp16
 70
     0
102
RTVSPropertyOp17
 70
     0
102
RTVSPropertyOp18
 70
     0
102
RTVSPropertyOp19
 70
     0
102
RTVSPropertyOp20
 70
     0
102
RTVSPropertyOp21
 70
     0
102
RTVSPropertyOp22
 70
     0
102
RTVSPropertyOp23
 70
     0
102
RTVSPropertyOp24
 70
     0
102
RTVSPropertyOp25
 70
     0
102
RTVSPropertyOp26
 70
     0
102
RTVSPropertyOp27
 70
     0
  0
XRECORD
  5
136B
102
{ACAD_REACTORS
330
136A
102
}
330
136A
100
AcDbXrecord
280
     1
102
RTVSPropertyOp0
 70
     1
102
RTVSPropertyOp1
 70
     1
102
RTVSPropertyOp2
 70
     1
102
RTVSPropertyOp3
 70
     1
102
RTVSPropertyOp4
 70
     1
102
RTVSPropertyOp5
 70
     1
102
RTVSPropertyOp6
 70
     1
102
RTVSPropertyOp7
 70
     1
102
RTVSPropertyOp8
 70
     1
102
RTVSPropertyOp9
 70
     1
102
RTVSPropertyOp10
 70
     1
102
RTVSPropertyOp11
 70
     1
102
RTVSPropertyOp12
 70
     1
102
RTVSPropertyOp13
 70
     1
102
RTVSPropertyOp14
 70
     1
102
RTVSPropertyOp15
 70
     1
102
RTVSPropertyOp16
 70
     1
102
RTVSPropertyOp17
 70
     1
102
RTVSPropertyOp18
 70
     1
102
RTVSPropertyOp19
 70
     1
102
RTVSPropertyOp20
 70
     1
102
RTVSPropertyOp21
 70
     1
102
RTVSPropertyOp22
 70
     1
102
RTVSPropertyOp23
 70
     1
102
RTVSPropertyOp24
 70
     1
102
RTVSPropertyOp25
 70
     1
102
RTVSPropertyOp26
 70
     1
102
RTVSPropertyOp27
 70
     1
  0
XRECORD
  5
1373
102
{ACAD_REACTORS
330
1372
102
}
330
1372
100
AcDbXrecord
280
     1
102
RTVSPropertyOp0
 70
     0
102
RTVSPropertyOp1
 70
     0
102
RTVSPropertyOp2
 70
     0
102
RTVSPropertyOp3
 70
     0
102
RTVSPropertyOp4
 70
     0
102
RTVSPropertyOp5
 70
     0
102
RTVSPropertyOp6
 70
     0
102
RTVSPropertyOp7
 70
     0
102
RTVSPropertyOp8
 70
     0
102
RTVSPropertyOp9
 70
     0
102
RTVSPropertyOp10
 70
     0
102
RTVSPropertyOp11
 70
     0
102
RTVSPropertyOp12
 70
     0
102
RTVSPropertyOp13
 70
     0
102
RTVSPropertyOp14
 70
     2
102
RTVSPropertyOp15
 70
     0
102
RTVSPropertyOp16
 70
     0
102
RTVSPropertyOp17
 70
     0
102
RTVSPropertyOp18
 70
     0
102
RTVSPropertyOp19
 70
     0
102
RTVSPropertyOp20
 70
     0
102
RTVSPropertyOp21
 70
     0
102
RTVSPropertyOp22
 70
     0
102
RTVSPropertyOp23
 70
     0
102
RTVSPropertyOp24
 70
     0
102
RTVSPropertyOp25
 70
     0
102
RTVSPropertyOp26
 70
     0
102
RTVSPropertyOp27
 70
     0
  0
XRECORD
  5
1363
102
{ACAD_REACTORS
330
1362
102
}
330
1362
100
AcDbXrecord
280
     1
102
RTVSPropertyOp0
 70
     1
102
RTVSPropertyOp1
 70
     1
102
RTVSPropertyOp2
 70
     1
102
RTVSPropertyOp3
 70
     1
102
RTVSPropertyOp4
 70
     1
102
RTVSPropertyOp5
 70
     1
102
RTVSPropertyOp6
 70
     1
102
RTVSPropertyOp7
 70
     1
102
RTVSPropertyOp8
 70
     1
102
RTVSPropertyOp9
 70
     1
102
RTVSPropertyOp10
 70
     1
102
RTVSPropertyOp11
 70
     1
102
RTVSPropertyOp12
 70
     1
102
RTVSPropertyOp13
 70
     1
102
RTVSPropertyOp14
 70
     1
102
RTVSPropertyOp15
 70
     1
102
RTVSPropertyOp16
 70
     1
102
RTVSPropertyOp17
 70
     1
102
RTVSPropertyOp18
 70
     1
102
RTVSPropertyOp19
 70
     1
102
RTVSPropertyOp20
 70
     1
102
RTVSPropertyOp21
 70
     1
102
RTVSPropertyOp22
 70
     1
102
RTVSPropertyOp23
 70
     1
102
RTVSPropertyOp24
 70
     1
102
RTVSPropertyOp25
 70
     1
102
RTVSPropertyOp26
 70
     1
102
RTVSPropertyOp27
 70
     1
  0
XRECORD
  5
1B3
102
{ACAD_REACTORS
330
1B2
102
}
330
1B2
100
AcDbXrecord
280
     1
102
RTVSPropertyOp28
 70
     1
102
RTVSPropertyOp29
 70
     1
102
RTVSPropertyOp30
 70
     1
102
RTVSPropertyOp31
 70
     1
102
RTVSPropertyOp32
 70
     1
102
RTVSPropertyOp0
 70
     1
102
RTVSPropertyOp1
 70
     1
102
RTVSPropertyOp2
 70
     1
102
RTVSPropertyOp3
 70
     1
102
RTVSPropertyOp4
 70
     1
102
RTVSPropertyOp5
 70
     1
102
RTVSPropertyOp6
 70
     1
102
RTVSPropertyOp7
 70
     1
102
RTVSPropertyOp8
 70
     1
102
RTVSPropertyOp9
 70
     1
102
RTVSPropertyOp10
 70
     1
102
RTVSPropertyOp11
 70
     1
102
RTVSPropertyOp12
 70
     1
102
RTVSPropertyOp13
 70
     1
102
RTVSPropertyOp14
 70
     1
102
RTVSPropertyOp15
 70
     1
102
RTVSPropertyOp16
 70
     1
102
RTVSPropertyOp17
 70
     1
102
RTVSPropertyOp18
 70
     1
102
RTVSPropertyOp19
 70
     1
102
RTVSPropertyOp20
 70
     1
102
RTVSPropertyOp21
 70
     1
102
RTVSPropertyOp22
 70
     1
102
RTVSPropertyOp23
 70
     1
102
RTVSPropertyOp24
 70
     1
102
RTVSPropertyOp25
 70
     1
102
RTVSPropertyOp26
 70
     1
102
RTVSPropertyOp27
 70
     1
  0
XRECORD
  5
1B6
102
{ACAD_REACTORS
330
1B5
102
}
330
1B5
100
AcDbXrecord
280
     1
102
RTVSPropertyOp28
 70
     1
102
RTVSPropertyOp29
 70
     1
102
RTVSPropertyOp30
 70
     1
102
RTVSPropertyOp31
 70
     1
102
RTVSPropertyOp32
 70
     1
102
RTVSPropertyOp0
 70
     1
102
RTVSPropertyOp1
 70
     1
102
RTVSPropertyOp2
 70
     1
102
RTVSPropertyOp3
 70
     1
102
RTVSPropertyOp4
 70
     1
102
RTVSPropertyOp5
 70
     1
102
RTVSPropertyOp6
 70
     1
102
RTVSPropertyOp7
 70
     1
102
RTVSPropertyOp8
 70
     1
102
RTVSPropertyOp9
 70
     1
102
RTVSPropertyOp10
 70
     1
102
RTVSPropertyOp11
 70
     1
102
RTVSPropertyOp12
 70
     1
102
RTVSPropertyOp13
 70
     1
102
RTVSPropertyOp14
 70
     1
102
RTVSPropertyOp15
 70
     1
102
RTVSPropertyOp16
 70
     1
102
RTVSPropertyOp17
 70
     1
102
RTVSPropertyOp18
 70
     1
102
RTVSPropertyOp19
 70
     1
102
RTVSPropertyOp20
 70
     1
102
RTVSPropertyOp21
 70
     1
102
RTVSPropertyOp22
 70
     1
102
RTVSPropertyOp23
 70
     1
102
RTVSPropertyOp24
 70
     1
102
RTVSPropertyOp25
 70
     1
102
RTVSPropertyOp26
 70
     1
102
RTVSPropertyOp27
 70
     1
  0
XRECORD
  5
1B9
102
{ACAD_REACTORS
330
1B8
102
}
330
1B8
100
AcDbXrecord
280
     1
102
RTVSPropertyOp28
 70
     1
102
RTVSPropertyOp29
 70
     1
102
RTVSPropertyOp30
 70
     1
102
RTVSPropertyOp31
 70
     1
102
RTVSPropertyOp32
 70
     1
102
RTVSPropertyOp0
 70
     1
102
RTVSPropertyOp1
 70
     1
102
RTVSPropertyOp2
 70
     1
102
RTVSPropertyOp3
 70
     1
102
RTVSPropertyOp4
 70
     1
102
RTVSPropertyOp5
 70
     1
102
RTVSPropertyOp6
 70
     1
102
RTVSPropertyOp7
 70
     1
102
RTVSPropertyOp8
 70
     1
102
RTVSPropertyOp9
 70
     1
102
RTVSPropertyOp10
 70
     1
102
RTVSPropertyOp11
 70
     1
102
RTVSPropertyOp12
 70
     1
102
RTVSPropertyOp13
 70
     1
102
RTVSPropertyOp14
 70
     1
102
RTVSPropertyOp15
 70
     1
102
RTVSPropertyOp16
 70
     1
102
RTVSPropertyOp17
 70
     1
102
RTVSPropertyOp18
 70
     1
102
RTVSPropertyOp19
 70
     1
102
RTVSPropertyOp20
 70
     1
102
RTVSPropertyOp21
 70
     1
102
RTVSPropertyOp22
 70
     1
102
RTVSPropertyOp23
 70
     1
102
RTVSPropertyOp24
 70
     1
102
RTVSPropertyOp25
 70
     1
102
RTVSPropertyOp26
 70
     1
102
RTVSPropertyOp27
 70
     1
  0
XRECORD
  5
1BC
102
{ACAD_REACTORS
330
1BB
102
}
330
1BB
100
AcDbXrecord
280
     1
102
RTVSPropertyOp28
 70
     1
102
RTVSPropertyOp29
 70
     1
102
RTVSPropertyOp30
 70
     1
102
RTVSPropertyOp31
 70
     1
102
RTVSPropertyOp32
 70
     1
102
RTVSPropertyOp0
 70
     1
102
RTVSPropertyOp1
 70
     1
102
RTVSPropertyOp2
 70
     1
102
RTVSPropertyOp3
 70
     1
102
RTVSPropertyOp4
 70
     1
102
RTVSPropertyOp5
 70
     1
102
RTVSPropertyOp6
 70
     1
102
RTVSPropertyOp7
 70
     1
102
RTVSPropertyOp8
 70
     1
102
RTVSPropertyOp9
 70
     1
102
RTVSPropertyOp10
 70
     1
102
RTVSPropertyOp11
 70
     1
102
RTVSPropertyOp12
 70
     1
102
RTVSPropertyOp13
 70
     1
102
RTVSPropertyOp14
 70
     1
102
RTVSPropertyOp15
 70
     1
102
RTVSPropertyOp16
 70
     1
102
RTVSPropertyOp17
 70
     1
102
RTVSPropertyOp18
 70
     1
102
RTVSPropertyOp19
 70
     1
102
RTVSPropertyOp20
 70
     1
102
RTVSPropertyOp21
 70
     1
102
RTVSPropertyOp22
 70
     1
102
RTVSPropertyOp23
 70
     1
102
RTVSPropertyOp24
 70
     1
102
RTVSPropertyOp25
 70
     1
102
RTVSPropertyOp26
 70
     1
102
RTVSPropertyOp27
 70
     1
  0
XRECORD
  5
1369
102
{ACAD_REACTORS
330
1368
102
}
330
1368
100
AcDbXrecord
280
     1
102
RTVSPropertyOp0
 70
     1
102
RTVSPropertyOp1
 70
     1
102
RTVSPropertyOp2
 70
     1
102
RTVSPropertyOp3
 70
     1
102
RTVSPropertyOp4
 70
     1
102
RTVSPropertyOp5
 70
     1
102
RTVSPropertyOp6
 70
     1
102
RTVSPropertyOp7
 70
     1
102
RTVSPropertyOp8
 70
     1
102
RTVSPropertyOp9
 70
     1
102
RTVSPropertyOp10
 70
     1
102
RTVSPropertyOp11
 70
     1
102
RTVSPropertyOp12
 70
     1
102
RTVSPropertyOp13
 70
     1
102
RTVSPropertyOp14
 70
     1
102
RTVSPropertyOp15
 70
     1
102
RTVSPropertyOp16
 70
     1
102
RTVSPropertyOp17
 70
     1
102
RTVSPropertyOp18
 70
     1
102
RTVSPropertyOp19
 70
     1
102
RTVSPropertyOp20
 70
     1
102
RTVSPropertyOp21
 70
     1
102
RTVSPropertyOp22
 70
     1
102
RTVSPropertyOp23
 70
     1
102
RTVSPropertyOp24
 70
     1
102
RTVSPropertyOp25
 70
     1
102
RTVSPropertyOp26
 70
     1
102
RTVSPropertyOp27
 70
     1
  0
XRECORD
  5
1BF
102
{ACAD_REACTORS
330
1BE
102
}
330
1BE
100
AcDbXrecord
280
     1
102
RTVSPropertyOp28
 70
     1
102
RTVSPropertyOp29
 70
     1
102
RTVSPropertyOp30
 70
     1
102
RTVSPropertyOp31
 70
     1
102
RTVSPropertyOp32
 70
     1
102
RTVSPropertyOp0
 70
     1
102
RTVSPropertyOp1
 70
     1
102
RTVSPropertyOp2
 70
     1
102
RTVSPropertyOp3
 70
     1
102
RTVSPropertyOp4
 70
     1
102
RTVSPropertyOp5
 70
     1
102
RTVSPropertyOp6
 70
     1
102
RTVSPropertyOp7
 70
     1
102
RTVSPropertyOp8
 70
     1
102
RTVSPropertyOp9
 70
     1
102
RTVSPropertyOp10
 70
     1
102
RTVSPropertyOp11
 70
     1
102
RTVSPropertyOp12
 70
     1
102
RTVSPropertyOp13
 70
     1
102
RTVSPropertyOp14
 70
     1
102
RTVSPropertyOp15
 70
     1
102
RTVSPropertyOp16
 70
     1
102
RTVSPropertyOp17
 70
     1
102
RTVSPropertyOp18
 70
     1
102
RTVSPropertyOp19
 70
     1
102
RTVSPropertyOp20
 70
     1
102
RTVSPropertyOp21
 70
     1
102
RTVSPropertyOp22
 70
     1
102
RTVSPropertyOp23
 70
     1
102
RTVSPropertyOp24
 70
     1
102
RTVSPropertyOp25
 70
     1
102
RTVSPropertyOp26
 70
     1
102
RTVSPropertyOp27
 70
     1
  0
XRECORD
  5
1C2
102
{ACAD_REACTORS
330
1C1
102
}
330
1C1
100
AcDbXrecord
280
     1
102
RTVSPropertyOp28
 70
     1
102
RTVSPropertyOp29
 70
     1
102
RTVSPropertyOp30
 70
     1
102
RTVSPropertyOp31
 70
     1
102
RTVSPropertyOp32
 70
     1
102
RTVSPropertyOp0
 70
     1
102
RTVSPropertyOp1
 70
     1
102
RTVSPropertyOp2
 70
     1
102
RTVSPropertyOp3
 70
     1
102
RTVSPropertyOp4
 70
     1
102
RTVSPropertyOp5
 70
     1
102
RTVSPropertyOp6
 70
     1
102
RTVSPropertyOp7
 70
     1
102
RTVSPropertyOp8
 70
     1
102
RTVSPropertyOp9
 70
     1
102
RTVSPropertyOp10
 70
     1
102
RTVSPropertyOp11
 70
     1
102
RTVSPropertyOp12
 70
     1
102
RTVSPropertyOp13
 70
     1
102
RTVSPropertyOp14
 70
     1
102
RTVSPropertyOp15
 70
     1
102
RTVSPropertyOp16
 70
     1
102
RTVSPropertyOp17
 70
     1
102
RTVSPropertyOp18
 70
     1
102
RTVSPropertyOp19
 70
     1
102
RTVSPropertyOp20
 70
     1
102
RTVSPropertyOp21
 70
     1
102
RTVSPropertyOp22
 70
     1
102
RTVSPropertyOp23
 70
     1
102
RTVSPropertyOp24
 70
     1
102
RTVSPropertyOp25
 70
     1
102
RTVSPropertyOp26
 70
     1
102
RTVSPropertyOp27
 70
     1
  0
DMBASEELEMENT
  5
182
102
{ACAD_XDICTIONARY
360
186
102
}
102
{ACAD_REACTORS
330
17F
102
}
330
17F
100
AcMapDMBaseElement
 70
     1
  1
Map Base
 70
     1
330
17F
100
AcMapDMBaseElement
 70
     1
  1

 70
     2
  1

 70
     1
 40
1.797693134862314E+99
 70
     1
 70
     1
 70
     1
 70
     1
360
185
100
AcMapDMBaseElement
 70
     1
  0
DMDEFAULTSTYLE
  5
183
102
{ACAD_REACTORS
330
17F
102
}
330
17F
100
AcMapDMDefaultStyle
 70
     1
 90
        1
  1
Default
100
AcMapDMDefaultStyle
 70
     1
280
   100
 90
     0
1001
AcMapDMDisplayStyleRegapp
1070
     2
1071
        1
1000
Default
1000

  0
XRECORD
  5
CBE
102
{ACAD_REACTORS
330
CBD
102
}
330
CBD
100
AcDbXrecord
280
     1
330
B7
  0
DICTIONARY
  5
186
330
182
100
AcDbDictionary
280
     1
281
     1
  3
AcMapDMSurrogateStyleSets
360
187
  0
DMSTYLEREFERENCE
  5
185
330
182
100
AcMapDMStyleReference
 70
     1
 70
     0
340
183
330
17F
  0
DMSURROGATESTYLESETS
  5
187
102
{ACAD_REACTORS
330
186
102
}
330
186
100
AcMapDMSurrogateStyleSets
 70
     1
  1
Map Base
 70
     1
 40
1.797693134862314E+99
 70
     1
 70
     1
 70
     1
 70
     1
330
185
 70
     0
  0
ENDSEC
  0
EOF
