  0
SECTION
  2
HEADER
  9
$ACADVER
  1
AC1018
  9
$ACADMAINTVER
 70
   104
  9
$DWGCODEPAGE
  3
ANSI_1252
  9
$LASTSAVEDBY
  1
Joseph H Fortier
  9
$INSBASE
 10
0.0
 20
0.0
 30
0.0
  9
$EXTMIN
 10
-0.8951802582263113
 20
0.0
 30
0.0
  9
$EXTMAX
 10
9.062500000000017
 20
7.125
 30
0.254760818588787
  9
$LIMMIN
 10
0.0
 20
0.0
  9
$LIMMAX
 10
12.0
 20
9.0
  9
$ORTHOMODE
 70
     1
  9
$REGENMODE
 70
     1
  9
$FILLMODE
 70
     1
  9
$QTEXTMODE
 70
     0
  9
$MIRRTEXT
 70
     0
  9
$LTSCALE
 40
1.0
  9
$ATTMODE
 70
     1
  9
$TEXTSIZE
 40
0.09
  9
$TRACEWID
 40
0.05
  9
$TEXTSTYLE
  7
DETAIL TEXT
  9
$CLAYER
  8
0
  9
$CELTYPE
  6
ByLayer
  9
$CECOLOR
 62
   256
  9
$CELTSCALE
 40
1.0
  9
$DISPSILH
 70
     0
  9
$DIMSCALE
 40
1.0
  9
$DIMASZ
 40
0.12
  9
$DIMEXO
 40
0.0625
  9
$DIMDLI
 40
0.38
  9
$DIMRND
 40
0.0
  9
$DIMDLE
 40
0.0
  9
$DIMEXE
 40
0.18
  9
$DIMTP
 40
0.0
  9
$DIMTM
 40
0.0
  9
$DIMTXT
 40
0.09
  9
$DIMCEN
 40
0.09
  9
$DIMTSZ
 40
0.0
  9
$DIMTOL
 70
     0
  9
$DIMLIM
 70
     0
  9
$DIMTIH
 70
     1
  9
$DIMTOH
 70
     1
  9
$DIMSE1
 70
     0
  9
$DIMSE2
 70
     0
  9
$DIMTAD
 70
     0
  9
$DIMZIN
 70
     0
  9
$DIMBLK
  1

  9
$DIMASO
 70
     1
  9
$DIMSHO
 70
     1
  9
$DIMPOST
  1

  9
$DIMAPOST
  1

  9
$DIMALT
 70
     0
  9
$DIMALTD
 70
     2
  9
$DIMALTF
 40
25.4
  9
$DIMLFAC
 40
1.0
  9
$DIMTOFL
 70
     0
  9
$DIMTVP
 40
0.0
  9
$DIMTIX
 70
     0
  9
$DIMSOXD
 70
     0
  9
$DIMSAH
 70
     0
  9
$DIMBLK1
  1

  9
$DIMBLK2
  1

  9
$DIMSTYLE
  2
Netafim Detail
  9
$DIMCLRD
 70
     0
  9
$DIMCLRE
 70
     0
  9
$DIMCLRT
 70
     0
  9
$DIMTFAC
 40
1.0
  9
$DIMGAP
 40
0.09
  9
$DIMJUST
 70
     0
  9
$DIMSD1
 70
     0
  9
$DIMSD2
 70
     0
  9
$DIMTOLJ
 70
     1
  9
$DIMTZIN
 70
     0
  9
$DIMALTZ
 70
     0
  9
$DIMALTTZ
 70
     0
  9
$DIMUPT
 70
     0
  9
$DIMDEC
 70
     2
  9
$DIMTDEC
 70
     2
  9
$DIMALTU
 70
     2
  9
$DIMALTTD
 70
     2
  9
$DIMTXSTY
  7
Netafim Detail
  9
$DIMAUNIT
 70
     0
  9
$DIMADEC
 70
     0
  9
$DIMALTRND
 40
0.0
  9
$DIMAZIN
 70
     0
  9
$DIMDSEP
 70
    46
  9
$DIMATFIT
 70
     3
  9
$DIMFRAC
 70
     0
  9
$DIMLDRBLK
  1

  9
$DIMLUNIT
 70
     2
  9
$DIMLWD
 70
    -2
  9
$DIMLWE
 70
    -2
  9
$DIMTMOVE
 70
     0
  9
$LUNITS
 70
     2
  9
$LUPREC
 70
     4
  9
$SKETCHINC
 40
0.1
  9
$FILLETRAD
 40
0.0
  9
$AUNITS
 70
     0
  9
$AUPREC
 70
     0
  9
$MENU
  1
.
  9
$ELEVATION
 40
0.0
  9
$PELEVATION
 40
0.0
  9
$THICKNESS
 40
0.0
  9
$LIMCHECK
 70
     0
  9
$CHAMFERA
 40
0.0
  9
$CHAMFERB
 40
0.0
  9
$CHAMFERC
 40
0.0
  9
$CHAMFERD
 40
0.0
  9
$SKPOLY
 70
     0
  9
$TDCREATE
 40
2456012.517465637
  9
$TDUCREATE
 40
2456012.809132303
  9
$TDUPDATE
 40
2456153.550493947
  9
$TDUUPDATE
 40
2456153.842160613
  9
$TDINDWG
 40
0.5425592708
  9
$TDUSRTIMER
 40
0.5425592708
  9
$USRTIMER
 70
     1
  9
$ANGBASE
 50
0.0
  9
$ANGDIR
 70
     0
  9
$PDMODE
 70
     0
  9
$PDSIZE
 40
0.0
  9
$PLINEWID
 40
0.0
  9
$SPLFRAME
 70
     0
  9
$SPLINETYPE
 70
     6
  9
$SPLINESEGS
 70
     8
  9
$HANDSEED
  5
E079
  9
$SURFTAB1
 70
     6
  9
$SURFTAB2
 70
     6
  9
$SURFTYPE
 70
     6
  9
$SURFU
 70
     6
  9
$SURFV
 70
     6
  9
$UCSBASE
  2

  9
$UCSNAME
  2

  9
$UCSORG
 10
0.0
 20
0.0
 30
0.0
  9
$UCSXDIR
 10
1.0
 20
0.0
 30
0.0
  9
$UCSYDIR
 10
0.0
 20
1.0
 30
0.0
  9
$UCSORTHOREF
  2

  9
$UCSORTHOVIEW
 70
     0
  9
$UCSORGTOP
 10
0.0
 20
0.0
 30
0.0
  9
$UCSORGBOTTOM
 10
0.0
 20
0.0
 30
0.0
  9
$UCSORGLEFT
 10
0.0
 20
0.0
 30
0.0
  9
$UCSORGRIGHT
 10
0.0
 20
0.0
 30
0.0
  9
$UCSORGFRONT
 10
0.0
 20
0.0
 30
0.0
  9
$UCSORGBACK
 10
0.0
 20
0.0
 30
0.0
  9
$PUCSBASE
  2

  9
$PUCSNAME
  2

  9
$PUCSORG
 10
0.0
 20
0.0
 30
0.0
  9
$PUCSXDIR
 10
1.0
 20
0.0
 30
0.0
  9
$PUCSYDIR
 10
0.0
 20
1.0
 30
0.0
  9
$PUCSORTHOREF
  2

  9
$PUCSORTHOVIEW
 70
     0
  9
$PUCSORGTOP
 10
0.0
 20
0.0
 30
0.0
  9
$PUCSORGBOTTOM
 10
0.0
 20
0.0
 30
0.0
  9
$PUCSORGLEFT
 10
0.0
 20
0.0
 30
0.0
  9
$PUCSORGRIGHT
 10
0.0
 20
0.0
 30
0.0
  9
$PUCSORGFRONT
 10
0.0
 20
0.0
 30
0.0
  9
$PUCSORGBACK
 10
0.0
 20
0.0
 30
0.0
  9
$USERI1
 70
     0
  9
$USERI2
 70
     0
  9
$USERI3
 70
     0
  9
$USERI4
 70
     0
  9
$USERI5
 70
     0
  9
$USERR1
 40
0.0
  9
$USERR2
 40
0.0
  9
$USERR3
 40
0.0
  9
$USERR4
 40
0.0
  9
$USERR5
 40
1.0
  9
$WORLDVIEW
 70
     1
  9
$SHADEDGE
 70
     3
  9
$SHADEDIF
 70
    70
  9
$TILEMODE
 70
     1
  9
$MAXACTVP
 70
    64
  9
$PINSBASE
 10
0.0
 20
0.0
 30
0.0
  9
$PLIMCHECK
 70
     0
  9
$PEXTMIN
 10
0.0
 20
0.0
 30
0.0
  9
$PEXTMAX
 10
0.0
 20
0.0
 30
0.0
  9
$PLIMMIN
 10
0.0
 20
0.0
  9
$PLIMMAX
 10
12.0
 20
9.0
  9
$UNITMODE
 70
     0
  9
$VISRETAIN
 70
     1
  9
$PLINEGEN
 70
     0
  9
$PSLTSCALE
 70
     1
  9
$TREEDEPTH
 70
  3020
  9
$CMLSTYLE
  2
Standard
  9
$CMLJUST
 70
     0
  9
$CMLSCALE
 40
1.0
  9
$PROXYGRAPHICS
 70
     1
  9
$MEASUREMENT
 70
     0
  9
$CELWEIGHT
370
    -1
  9
$ENDCAPS
280
     0
  9
$JOINSTYLE
280
     0
  9
$LWDISPLAY
290
     0
  9
$INSUNITS
 70
     1
  9
$HYPERLINKBASE
  1

  9
$STYLESHEET
  1

  9
$XEDIT
290
     1
  9
$CEPSNTYPE
380
     0
  9
$PSTYLEMODE
290
     1
  9
$FINGERPRINTGUID
  2
{54E25747-DECD-4F46-8E40-CC13C71438EE}
  9
$VERSIONGUID
  2
{34C4745E-A2D4-4C05-BCDE-C15E601D6C24}
  9
$EXTNAMES
290
     1
  9
$PSVPSCALE
 40
0.0
  9
$OLESTARTUP
290
     0
  9
$SORTENTS
280
   127
  9
$INDEXCTL
280
     0
  9
$HIDETEXT
280
     1
  9
$XCLIPFRAME
290
     0
  9
$HALOGAP
280
     0
  9
$OBSCOLOR
 70
   257
  9
$OBSLTYPE
280
     0
  9
$INTERSECTIONDISPLAY
280
     0
  9
$INTERSECTIONCOLOR
 70
   257
  9
$DIMASSOC
280
     2
  9
$PROJECTNAME
  1

  0
ENDSEC
  0
SECTION
  2
CLASSES
  0
CLASS
  1
ACDBDICTIONARYWDFLT
  2
AcDbDictionaryWithDefault
  3
ObjectDBX Classes
 90
        0
 91
        1
280
     0
281
     0
  0
CLASS
  1
DICTIONARYVAR
  2
AcDbDictionaryVar
  3
ObjectDBX Classes
 90
        0
 91
       13
280
     0
281
     0
  0
CLASS
  1
TABLESTYLE
  2
AcDbTableStyle
  3
ObjectDBX Classes
 90
     4095
 91
        2
280
     0
281
     0
  0
CLASS
  1
MATERIAL
  2
AcDbMaterial
  3
ObjectDBX Classes
 90
     1153
 91
        3
280
     0
281
     0
  0
CLASS
  1
VISUALSTYLE
  2
AcDbVisualStyle
  3
ObjectDBX Classes
 90
     4095
 91
       26
280
     0
281
     0
  0
CLASS
  1
SCALE
  2
AcDbScale
  3
ObjectDBX Classes
 90
     1153
 91
       33
280
     0
281
     0
  0
CLASS
  1
MLEADERSTYLE
  2
AcDbMLeaderStyle
  3
ACDB_MLEADERSTYLE_CLASS
 90
     4095
 91
        2
280
     0
281
     0
  0
CLASS
  1
CELLSTYLEMAP
  2
AcDbCellStyleMap
  3
ObjectDBX Classes
 90
     1152
 91
        4
280
     0
281
     0
  0
CLASS
  1
EXACXREFPANELOBJECT
  2
ExAcXREFPanelObject
  3
EXAC_ESW
 90
     1025
 91
        0
280
     0
281
     0
  0
CLASS
  1
NPOCOLLECTION
  2
AcDbImpNonPersistentObjectsCollection
  3
ObjectDBX Classes
 90
     1153
 91
        0
280
     0
281
     0
  0
CLASS
  1
LAYER_INDEX
  2
AcDbLayerIndex
  3
ObjectDBX Classes
 90
        0
 91
        0
280
     0
281
     0
  0
CLASS
  1
SPATIAL_INDEX
  2
AcDbSpatialIndex
  3
ObjectDBX Classes
 90
        0
 91
        0
280
     0
281
     0
  0
CLASS
  1
IDBUFFER
  2
AcDbIdBuffer
  3
ObjectDBX Classes
 90
        0
 91
        0
280
     0
281
     0
  0
CLASS
  1
DMMAPMANAGER
  2
AcMapDMMapManager
  3
AcMapDisplayManagement
 90
     1024
 91
        1
280
     0
281
     0
  0
CLASS
  1
DMSTYLELIBRARY
  2
AcMapDMStyleLibrary
  3
AcMapDisplayManagement
 90
     1024
 91
        1
280
     0
281
     0
  0
CLASS
  1
DMSTYLECATEGORY
  2
AcMapDMStyleCategory
  3
AcMapDisplayManagement
 90
     1024
 91
        1
280
     0
281
     0
  0
CLASS
  1
DATATABLE
  2
AcDbDataTable
  3
ObjectDBX Classes
 90
        0
 91
        1
280
     0
281
     0
  0
CLASS
  1
DMMAP
  2
AcMapDMMap
  3
AcMapDisplayManagement
 90
     1024
 91
        1
280
     0
281
     0
  0
CLASS
  1
DMBASEELEMENT
  2
AcMapDMBaseElement
  3
AcMapDisplayManagement
 90
     1024
 91
        1
280
     0
281
     0
  0
CLASS
  1
DMDEFAULTSTYLE
  2
AcMapDMDefaultStyle
  3
AcMapDisplayManagement
 90
     1024
 91
        1
280
     0
281
     0
  0
CLASS
  1
DMSTYLEREFERENCE
  2
AcMapDMStyleReference
  3
AcMapDisplayManagement
 90
     1024
 91
        1
280
     0
281
     0
  0
CLASS
  1
DMSURROGATESTYLESETS
  2
AcMapDMSurrogateStyleSets
  3
AcMapDisplayManagement
 90
     1153
 91
        1
280
     0
281
     0
  0
CLASS
  1
SORTENTSTABLE
  2
AcDbSortentsTable
  3
ObjectDBX Classes
 90
        0
 91
        1
280
     0
281
     0
  0
CLASS
  1
DMSTYLIZEDENTITIESTABLE
  2
AcMapDMStylizedEntitiesTable
  3
AcMapDisplayManagement
 90
     1024
 91
        1
280
     0
281
     0
  0
CLASS
  1
MAPGWSUNDOOBJECT
  2
AcMapGWSUndoRecorder
  3
AcMapFeatureSourceManager
 90
     1025
 91
        1
280
     0
281
     0
  0
CLASS
  1
SUN
  2
AcDbSun
  3
SCENEOE
 90
     1153
 91
        1
280
     0
281
     0
  0
CLASS
  1
GEODATA
  2
AcDbGeoData
  3
ObjectDBX Classes
 90
     4095
 91
        1
280
     0
281
     0
  0
CLASS
  1
MAPRESOURCEMANAGEROBJECT
  2
AcMapResourceManager
  3
AcMapSharedComponents
 90
     1024
 91
        0
280
     0
281
     0
  0
CLASS
  1
MULTILEADER
  2
AcDbMLeader
  3
ACDB_MLEADER_CLASS
 90
     1025
 91
        6
280
     0
281
     1
  0
CLASS
  1
DIMASSOC
  2
AcDbDimAssoc
  3
"AcDbDimAssoc|Product Desc:     AcDim ARX App For Dimension|Company:          Autodesk, Inc.|WEB Address:      www.autodesk.com"
 90
        0
 91
        4
280
     0
281
     0
  0
CLASS
  1
AEC_REFEDIT_STATUS_TRACKER
  2
AecDbRefEditStatusTracker
  3
AecArchBase60|Product Desc: Autodesk Architectural Desktop 2007 |Company: Autodesk,Inc. |WEB Address: www.autodesk.com
 90
      129
 91
        0
280
     0
281
     0
  0
CLASS
  1
PLOTSETTINGS
  2
AcDbPlotSettings
  3
ObjectDBX Classes
 90
        0
 91
        1
280
     0
281
     0
  0
ENDSEC
  0
SECTION
  2
TABLES
  0
TABLE
  2
VPORT
  5
8
102
{ACAD_XDICTIONARY
360
E00B
102
}
330
0
100
AcDbSymbolTable
 70
     1
  0
VPORT
  5
94
330
8
100
AcDbSymbolTableRecord
100
AcDbViewportTableRecord
  2
*Active
 70
     0
 10
0.0
 20
0.0
 11
1.0
 21
1.0
 12
4.083439677078817
 22
4.192657648982926
 13
0.0
 23
0.0
 14
0.5
 24
0.5
 15
0.5
 25
0.5
 16
0.0
 26
0.0
 36
1.0
 17
0.0
 27
0.0
 37
0.0
 40
7.175061061665395
 41
1.784580498866213
 42
50.0
 43
0.0
 44
0.0
 50
0.0
 51
0.0
 71
     0
 72
  1000
 73
     1
 74
     3
 75
     0
 76
     0
 77
     0
 78
     0
281
     0
 65
     1
110
0.0
120
0.0
130
0.0
111
1.0
121
0.0
131
0.0
112
0.0
122
1.0
132
0.0
 79
     0
146
0.0
1001
ACAD_NAV_VCDISPLAY
1070
     3
  0
ENDTAB
  0
TABLE
  2
LTYPE
  5
5
330
0
100
AcDbSymbolTable
 70
     1
  0
LTYPE
  5
14
330
5
100
AcDbSymbolTableRecord
100
AcDbLinetypeTableRecord
  2
ByBlock
 70
     0
  3

 72
    65
 73
     0
 40
0.0
  0
LTYPE
  5
15
330
5
100
AcDbSymbolTableRecord
100
AcDbLinetypeTableRecord
  2
ByLayer
 70
     0
  3

 72
    65
 73
     0
 40
0.0
  0
LTYPE
  5
16
330
5
100
AcDbSymbolTableRecord
100
AcDbLinetypeTableRecord
  2
Continuous
 70
     0
  3
Solid line
 72
    65
 73
     0
 40
0.0
  0
ENDTAB
  0
TABLE
  2
LAYER
  5
2
102
{ACAD_XDICTIONARY
360
20C
102
}
330
0
100
AcDbSymbolTable
 70
    13
  0
LAYER
  5
10
102
{ACAD_XDICTIONARY
360
E6
102
}
330
2
100
AcDbSymbolTableRecord
100
AcDbLayerTableRecord
  2
0
 70
     0
 62
     7
  6
Continuous
370
    -3
390
F
  0
LAYER
  5
19F
330
2
100
AcDbSymbolTableRecord
100
AcDbLayerTableRecord
  2
NETAFIM-LG-DETL-ANNO
 70
     0
 62
     1
  6
Continuous
370
    -3
390
F
  0
LAYER
  5
1A1
102
{ACAD_XDICTIONARY
360
1A2
102
}
330
2
100
AcDbSymbolTableRecord
100
AcDbLayerTableRecord
  2
NETAFIM-D-TEXT-025M
 70
     0
 62
     2
  6
Continuous
370
    -3
390
F
1001
RAK
1000
{DETAILS
1070
     0
1070
     1
1000
Continuous
1071
       -3
1071
        1
1005
14
1000
DETAILS}
  0
LAYER
  5
1A3
102
{ACAD_XDICTIONARY
360
1A4
102
}
330
2
100
AcDbSymbolTableRecord
100
AcDbLayerTableRecord
  2
NETAFIM-D-070M
 70
     0
 62
     6
  6
Continuous
370
    -3
390
F
1001
RAK
1000
{DETAILS
1070
     0
1070
     5
1000
Continuous
1071
       -3
1071
        1
1005
14
1000
DETAILS}
  0
LAYER
  5
1A7
102
{ACAD_XDICTIONARY
360
1A8
102
}
330
2
100
AcDbSymbolTableRecord
100
AcDbLayerTableRecord
  2
NETAFIM-D-NPLT
 70
     0
 62
     1
  6
Continuous
370
    -3
390
F
  0
LAYER
  5
1EB
330
2
100
AcDbSymbolTableRecord
100
AcDbLayerTableRecord
  2
NETAFIM-L-DETL-013M
 70
     0
 62
     1
  6
Continuous
370
    -3
390
F
  0
LAYER
  5
1EC
330
2
100
AcDbSymbolTableRecord
100
AcDbLayerTableRecord
  2
NETAFIM-L-DETL-025M
 70
     0
 62
     2
  6
Continuous
370
    -3
390
F
  0
LAYER
  5
1EF
330
2
100
AcDbSymbolTableRecord
100
AcDbLayerTableRecord
  2
NETAFIM-L-DETL-035M
 70
     0
 62
     4
  6
Continuous
370
    -3
390
F
  0
LAYER
  5
1F0
330
2
100
AcDbSymbolTableRecord
100
AcDbLayerTableRecord
  2
NETAFIM-L-DETL-PATT-025M
 70
     0
 62
     2
  6
Continuous
370
    -3
390
F
  0
LAYER
  5
1F1
330
2
100
AcDbSymbolTableRecord
100
AcDbLayerTableRecord
  2
NETAFIM-L-DETL-PATT-013M
 70
     0
 62
     1
  6
Continuous
370
    -3
390
F
  0
LAYER
  5
204
330
2
100
AcDbSymbolTableRecord
100
AcDbLayerTableRecord
  2
NETAFIM-L-DETL-TEXT
 70
     0
 62
     1
  6
Continuous
370
    -3
390
F
1001
AcAecLayerStandard
1000

1000

  0
LAYER
  5
DEFF
102
{ACAD_XDICTIONARY
360
DF00
102
}
330
2
100
AcDbSymbolTableRecord
100
AcDbLayerTableRecord
  2
NETAFIM-L-DETL-TEXT-LEADER-025M
 70
     0
 62
     2
  6
Continuous
370
    -3
390
F
1001
AcAecLayerStandard
1000

1000

  0
LAYER
  5
DF07
330
2
100
AcDbSymbolTableRecord
100
AcDbLayerTableRecord
  2
Defpoints
 70
     0
 62
     7
  6
Continuous
290
     0
370
    -3
390
F
  0
ENDTAB
  0
TABLE
  2
STYLE
  5
3
330
0
100
AcDbSymbolTable
 70
     6
  0
STYLE
  5
11
330
3
100
AcDbSymbolTableRecord
100
AcDbTextStyleTableRecord
  2
Standard
 70
     0
 40
0.0
 41
1.0
 50
0.0
 71
     0
 42
0.2
  3
arial.ttf
  4

1001
ACAD
1000
Arial
1071
       34
  0
STYLE
  5
180
330
3
100
AcDbSymbolTableRecord
100
AcDbTextStyleTableRecord
  2
Legend
 70
     0
 40
0.0
 41
1.0
 50
0.0
 71
     0
 42
0.2
  3
CALIBRI.TTF
  4

1001
ACAD
1000
Calibri
1071
      256
  0
STYLE
  5
1A9
330
3
100
AcDbSymbolTableRecord
100
AcDbTextStyleTableRecord
  2
DETAIL NUMBER
 70
     0
 40
0.0
 41
1.0
 50
0.0
 71
     0
 42
0.24
  3
swiss.ttf
  4

1001
ACAD
1000
Swis721 BT
1071
       34
  0
STYLE
  5
1AA
330
3
100
AcDbSymbolTableRecord
100
AcDbTextStyleTableRecord
  2
DETAIL TITLE
 70
     0
 40
0.0
 41
1.0
 50
0.0
 71
     0
 42
0.18
  3
swiss.ttf
  4

1001
ACAD
1000
Swis721 BT
1071
       34
  0
STYLE
  5
1AB
330
3
100
AcDbSymbolTableRecord
100
AcDbTextStyleTableRecord
  2
DETAIL TEXT
 70
     0
 40
0.0
 41
1.0
 50
0.0
 71
     0
 42
0.09
  3
ROMANS.SHX
  4

  0
STYLE
  5
DF01
330
3
100
AcDbSymbolTableRecord
100
AcDbTextStyleTableRecord
  2
Netafim Detail
 70
     0
 40
0.09
 41
1.0
 50
0.0
 71
     0
 42
0.2
  3
arial.ttf
  4

1001
ACAD
1000
Arial
1071
       34
  0
ENDTAB
  0
TABLE
  2
VIEW
  5
6
330
0
100
AcDbSymbolTable
 70
     0
  0
ENDTAB
  0
TABLE
  2
UCS
  5
7
330
0
100
AcDbSymbolTable
 70
     0
  0
ENDTAB
  0
TABLE
  2
APPID
  5
9
330
0
100
AcDbSymbolTable
 70
    18
  0
APPID
  5
12
330
9
100
AcDbSymbolTableRecord
100
AcDbRegAppTableRecord
  2
ACAD
 70
     0
  0
APPID
  5
DD
330
9
100
AcDbSymbolTableRecord
100
AcDbRegAppTableRecord
  2
AcadAnnoPO
 70
     0
  0
APPID
  5
DE
330
9
100
AcDbSymbolTableRecord
100
AcDbRegAppTableRecord
  2
AcadAnnotative
 70
     0
  0
APPID
  5
DF
330
9
100
AcDbSymbolTableRecord
100
AcDbRegAppTableRecord
  2
ACAD_DSTYLE_DIMJAG
 70
     0
  0
APPID
  5
E0
330
9
100
AcDbSymbolTableRecord
100
AcDbRegAppTableRecord
  2
ACAD_DSTYLE_DIMTALN
 70
     0
  0
APPID
  5
107
330
9
100
AcDbSymbolTableRecord
100
AcDbRegAppTableRecord
  2
ACAD_MLEADERVER
 70
     0
  0
APPID
  5
184
330
9
100
AcDbSymbolTableRecord
100
AcDbRegAppTableRecord
  2
AcMapDMDisplayStyleRegapp
 70
     0
  0
APPID
  5
18E
330
9
100
AcDbSymbolTableRecord
100
AcDbRegAppTableRecord
  2
ADE
 70
     0
  0
APPID
  5
191
330
9
100
AcDbSymbolTableRecord
100
AcDbRegAppTableRecord
  2
MapGWS
 70
     0
  0
APPID
  5
194
330
9
100
AcDbSymbolTableRecord
100
AcDbRegAppTableRecord
  2
DCO15
 70
     0
  0
APPID
  5
19E
330
9
100
AcDbSymbolTableRecord
100
AcDbRegAppTableRecord
  2
LandFX
 70
     0
  0
APPID
  5
1AC
330
9
100
AcDbSymbolTableRecord
100
AcDbRegAppTableRecord
  2
RAK
 70
     0
  0
APPID
  5
1AD
330
9
100
AcDbSymbolTableRecord
100
AcDbRegAppTableRecord
  2
ACAD_EXEMPT_FROM_CAD_STANDARDS
 70
     0
  0
APPID
  5
209
330
9
100
AcDbSymbolTableRecord
100
AcDbRegAppTableRecord
  2
ACAD_PSEXT
 70
     0
  0
APPID
  5
20A
330
9
100
AcDbSymbolTableRecord
100
AcDbRegAppTableRecord
  2
AcAecLayerStandard
 70
     0
  0
APPID
  5
20B
330
9
100
AcDbSymbolTableRecord
100
AcDbRegAppTableRecord
  2
ACAD_NAV_VCDISPLAY
 70
     0
  0
APPID
  5
77E
330
9
100
AcDbSymbolTableRecord
100
AcDbRegAppTableRecord
  2
AcLayerTools
 70
     0
  0
APPID
  5
DF03
330
9
100
AcDbSymbolTableRecord
100
AcDbRegAppTableRecord
  2
ACAD_DSTYLE_DIMBREAK
 70
     0
  0
ENDTAB
  0
TABLE
  2
DIMSTYLE
  5
A
330
0
100
AcDbSymbolTable
 70
     2
100
AcDbDimStyleTable
 71
     2
340
DF02
340
27
  0
DIMSTYLE
105
27
330
A
100
AcDbSymbolTableRecord
100
AcDbDimStyleTableRecord
  2
Standard
 70
     0
340
11
  0
DIMSTYLE
105
DF02
330
A
100
AcDbSymbolTableRecord
100
AcDbDimStyleTableRecord
  2
Netafim Detail
 70
     0
 41
0.12
140
0.09
271
     2
272
     2
340
DF01
1001
ACAD_DSTYLE_DIMBREAK
1070
   391
1040
0.125
1001
ACAD_DSTYLE_DIMJAG
1070
   388
1040
1.5
1001
ACAD_DSTYLE_DIMTALN
1070
   392
1070
     0
  0
ENDTAB
  0
TABLE
  2
BLOCK_RECORD
  5
1
330
0
100
AcDbSymbolTable
 70
     1
  0
BLOCK_RECORD
  5
1F
102
{ACAD_XDICTIONARY
360
15D
102
}
330
1
100
AcDbSymbolTableRecord
100
AcDbBlockTableRecord
  2
*Model_Space
340
22
  0
BLOCK_RECORD
  5
58
330
1
100
AcDbSymbolTableRecord
100
AcDbBlockTableRecord
  2
*Paper_Space
340
59
  0
BLOCK_RECORD
  5
5D
330
1
100
AcDbSymbolTableRecord
100
AcDbBlockTableRecord
  2
*Paper_Space0
340
5E
  0
ENDTAB
  0
ENDSEC
  0
SECTION
  2
BLOCKS
  0
BLOCK
  5
20
330
1F
100
AcDbEntity
  8
0
100
AcDbBlockBegin
  2
*Model_Space
 70
     0
 10
0.0
 20
0.0
 30
0.0
  3
*Model_Space
  1

  0
ENDBLK
  5
21
330
1F
100
AcDbEntity
  8
0
100
AcDbBlockEnd
  0
BLOCK
  5
5A
330
58
100
AcDbEntity
 67
     1
  8
0
100
AcDbBlockBegin
  2
*Paper_Space
 70
     0
 10
0.0
 20
0.0
 30
0.0
  3
*Paper_Space
  1

  0
ENDBLK
  5
5B
330
58
100
AcDbEntity
 67
     1
  8
0
100
AcDbBlockEnd
  0
BLOCK
  5
5F
330
5D
100
AcDbEntity
 67
     1
  8
0
100
AcDbBlockBegin
  2
*Paper_Space0
 70
     0
 10
0.0
 20
0.0
 30
0.0
  3
*Paper_Space0
  1

  0
ENDBLK
  5
60
330
5D
100
AcDbEntity
 67
     1
  8
0
100
AcDbBlockEnd
  0
ENDSEC
  0
SECTION
  2
ENTITIES
  0
LWPOLYLINE
  5
865E
330
1F
100
AcDbEntity
  8
NETAFIM-L-DETL-035M
100
AcDbPolyline
 90
        4
 70
     1
 43
0.0
 10
4.186609185654862
 20
5.347955854279597
 10
5.978209185654858
 20
5.347955854279597
 10
5.951109185654861
 20
5.160455854279597
 10
4.219809185654863
 20
5.160455854279597
  0
LWPOLYLINE
  5
865F
102
{ACAD_REACTORS
330
DF1A
102
}
330
1F
100
AcDbEntity
  8
NETAFIM-L-DETL-035M
100
AcDbPolyline
 90
       10
 70
     1
 43
0.0
 10
4.151909185654862
 20
5.347955854279597
 10
4.110209185654863
 20
5.347955854279597
 10
3.938309185654862
 20
3.217755854279598
 10
3.907109185654864
 20
3.217755854279598
 10
3.907109185654864
 20
3.191755854279598
 10
3.985209185654863
 20
3.191755854279598
 10
4.146609185654863
 20
5.108355854279597
 10
4.219609185654864
 20
5.108355854279597
 10
4.219609185654864
 20
5.144855854279597
 10
4.177909185654858
 20
5.144855854279597
  0
LWPOLYLINE
  5
8660
102
{ACAD_REACTORS
330
BED2
330
DF1E
102
}
330
1F
100
AcDbEntity
  8
NETAFIM-L-DETL-025M
100
AcDbPolyline
 90
        4
 70
     1
 43
0.0
 10
3.742109185654864
 20
3.167455854279598
 10
4.339409185654862
 20
3.167455854279598
 10
4.339409185654862
 20
2.722955854279597
 10
3.742109185654864
 20
2.722955854279597
  0
LWPOLYLINE
  5
8661
102
{ACAD_REACTORS
330
BED2
102
}
330
1F
100
AcDbEntity
  8
NETAFIM-L-DETL-025M
100
AcDbPolyline
 90
        4
 70
     1
 43
0.0
 10
5.839409185654862
 20
3.167455854279598
 10
6.436609185654862
 20
3.167455854279598
 10
6.436609185654862
 20
2.722955854279597
 10
5.839409185654862
 20
2.722955854279597
  0
LWPOLYLINE
  5
867E
330
1F
100
AcDbEntity
  8
NETAFIM-L-DETL-PATT-025M
100
AcDbPolyline
 90
        2
 70
     1
 43
0.0
 10
7.435269541635509
 20
4.871514465112941
 42
1.0
 10
7.445580348535219
 20
4.871514465112941
 42
1.0
  0
LWPOLYLINE
  5
867F
330
1F
100
AcDbEntity
  8
NETAFIM-L-DETL-PATT-025M
100
AcDbPolyline
 90
        2
 70
     1
 43
0.0
 10
7.270296631240146
 20
4.933075287213572
 42
1.0
 10
7.280607438139856
 20
4.933075287213572
 42
1.0
  0
LWPOLYLINE
  5
8680
330
1F
100
AcDbEntity
  8
NETAFIM-L-DETL-PATT-025M
100
AcDbPolyline
 90
        2
 70
     1
 43
0.0
 10
6.456652663242412
 20
5.067114121541063
 42
1.0
 10
6.466963470142122
 20
5.067114121541063
 42
1.0
  0
LWPOLYLINE
  5
8681
330
1F
100
AcDbEntity
  8
NETAFIM-L-DETL-PATT-025M
100
AcDbPolyline
 90
        2
 70
     1
 43
0.0
 10
6.692891444856361
 20
5.067114121541063
 42
1.0
 10
6.703202251756071
 20
5.067114121541063
 42
1.0
  0
LWPOLYLINE
  5
8682
330
1F
100
AcDbEntity
  8
NETAFIM-L-DETL-PATT-025M
100
AcDbPolyline
 90
        2
 70
     1
 43
0.0
 10
6.456652663242412
 20
4.838762894734276
 42
1.0
 10
6.466963470142122
 20
4.838762894734276
 42
1.0
  0
LWPOLYLINE
  5
8683
330
1F
100
AcDbEntity
  8
NETAFIM-L-DETL-PATT-025M
100
AcDbPolyline
 90
        2
 70
     1
 43
0.0
 10
6.280762427894412
 20
5.147367755731817
 42
1.0
 10
6.291073234794122
 20
5.147367755731817
 42
1.0
  0
LWPOLYLINE
  5
8684
330
1F
100
AcDbEntity
  8
NETAFIM-L-DETL-PATT-025M
100
AcDbPolyline
 90
        2
 70
     1
 43
0.0
 10
6.44088319386638
 20
4.73899190719187
 42
1.0
 10
6.45119400076609
 20
4.73899190719187
 42
1.0
  0
LWPOLYLINE
  5
8685
330
1F
100
AcDbEntity
  8
NETAFIM-L-DETL-PATT-025M
100
AcDbPolyline
 90
        2
 70
     1
 43
0.0
 10
6.306842704170147
 20
4.555522462015105
 42
1.0
 10
6.317153511069857
 20
4.555522462015105
 42
1.0
  0
LWPOLYLINE
  5
8686
330
1F
100
AcDbEntity
  8
NETAFIM-L-DETL-PATT-025M
100
AcDbPolyline
 90
        2
 70
     1
 43
0.0
 10
6.435424531390065
 20
4.332629830271429
 42
1.0
 10
6.445735338289775
 20
4.332629830271429
 42
1.0
  0
LWPOLYLINE
  5
8687
330
1F
100
AcDbEntity
  8
NETAFIM-L-DETL-PATT-025M
100
AcDbPolyline
 90
        2
 70
     1
 43
0.0
 10
7.159910345607951
 20
4.288051303922692
 42
1.0
 10
7.170221152507661
 20
4.288051303922692
 42
1.0
  0
LWPOLYLINE
  5
8688
330
1F
100
AcDbEntity
  8
NETAFIM-L-DETL-PATT-025M
100
AcDbPolyline
 90
        2
 70
     1
 43
0.0
 10
7.453768342249698
 20
4.490019321257779
 42
1.0
 10
7.464079149149409
 20
4.490019321257779
 42
1.0
  0
LWPOLYLINE
  5
8689
330
1F
100
AcDbEntity
  8
NETAFIM-L-DETL-PATT-025M
100
AcDbPolyline
 90
        2
 70
     1
 43
0.0
 10
7.36461018846985
 20
4.652564152025956
 42
1.0
 10
7.37492099536956
 20
4.652564152025956
 42
1.0
  0
LWPOLYLINE
  5
868A
330
1F
100
AcDbEntity
  8
NETAFIM-L-DETL-PATT-025M
100
AcDbPolyline
 90
        2
 70
     1
 43
0.0
 10
7.50107675037778
 20
4.290477346172963
 42
1.0
 10
7.51138755727749
 20
4.290477346172963
 42
1.0
  0
LWPOLYLINE
  5
868B
330
1F
100
AcDbEntity
  8
NETAFIM-L-DETL-PATT-025M
100
AcDbPolyline
 90
        2
 70
     1
 43
0.0
 10
7.419803331285944
 20
3.954773749791673
 42
1.0
 10
7.430114138185654
 20
3.954773749791673
 42
1.0
  0
LWPOLYLINE
  5
868C
330
1F
100
AcDbEntity
  8
NETAFIM-L-DETL-PATT-025M
100
AcDbPolyline
 90
        2
 70
     1
 43
0.0
 10
6.599487664706042
 20
2.801493915068956
 42
1.0
 10
6.609798471605753
 20
2.801493915068956
 42
1.0
  0
LWPOLYLINE
  5
868D
330
1F
100
AcDbEntity
  8
NETAFIM-L-DETL-PATT-025M
100
AcDbPolyline
 90
        2
 70
     1
 43
0.0
 10
6.342020751239747
 20
2.523712077412894
 42
1.0
 10
6.352331558139457
 20
2.523712077412894
 42
1.0
  0
LWPOLYLINE
  5
868E
330
1F
100
AcDbEntity
  8
NETAFIM-L-DETL-PATT-025M
100
AcDbPolyline
 90
        2
 70
     1
 43
0.0
 10
6.362339106012708
 20
2.214694945784589
 42
1.0
 10
6.372649912912418
 20
2.214694945784589
 42
1.0
  0
LWPOLYLINE
  5
8693
330
1F
100
AcDbEntity
  8
NETAFIM-L-DETL-PATT-025M
100
AcDbPolyline
 90
        2
 70
     1
 43
0.0
 10
3.530315069154855
 20
3.106087349533922
 42
1.0
 10
3.540625876054566
 20
3.106087349533922
 42
1.0
  0
LWPOLYLINE
  5
86B5
330
1F
100
AcDbEntity
  8
NETAFIM-L-DETL-PATT-025M
100
AcDbPolyline
 90
        2
 70
     1
 43
0.0
 10
3.859542360621244
 20
2.235316304911894
 42
1.0
 10
3.869853167520954
 20
2.235316304911894
 42
1.0
  0
LWPOLYLINE
  5
86B6
330
1F
100
AcDbEntity
  8
NETAFIM-L-DETL-PATT-025M
100
AcDbPolyline
 90
        2
 70
     1
 43
0.0
 10
3.921407202019512
 20
2.51340139784924
 42
1.0
 10
3.931718008919222
 20
2.51340139784924
 42
1.0
  0
LWPOLYLINE
  5
86B7
330
1F
100
AcDbEntity
  8
NETAFIM-L-DETL-PATT-025M
100
AcDbPolyline
 90
        2
 70
     1
 43
0.0
 10
3.622697060954369
 20
2.534022756976548
 42
1.0
 10
3.633007867854079
 20
2.534022756976548
 42
1.0
  0
LWPOLYLINE
  5
86B8
330
1F
100
AcDbEntity
  8
NETAFIM-L-DETL-PATT-025M
100
AcDbPolyline
 90
        2
 70
     1
 43
0.0
 10
3.367800942359156
 20
2.688379695150057
 42
1.0
 10
3.378111749258867
 20
2.688379695150057
 42
1.0
  0
LWPOLYLINE
  5
86B9
330
1F
100
AcDbEntity
  8
NETAFIM-L-DETL-PATT-025M
100
AcDbPolyline
 90
        2
 70
     1
 43
0.0
 10
3.439673331630668
 20
2.935532749396447
 42
1.0
 10
3.449984138530378
 20
2.935532749396447
 42
1.0
  0
LWPOLYLINE
  5
86BA
330
1F
100
AcDbEntity
  8
NETAFIM-L-DETL-PATT-025M
100
AcDbPolyline
 90
        2
 70
     1
 43
0.0
 10
3.171895611264655
 20
3.017714930624386
 42
1.0
 10
3.182206418164366
 20
3.017714930624386
 42
1.0
  0
LWPOLYLINE
  5
86BB
330
1F
100
AcDbEntity
  8
NETAFIM-L-DETL-PATT-025M
100
AcDbPolyline
 90
        2
 70
     1
 43
0.0
 10
3.140963190565525
 20
2.801493915068956
 42
1.0
 10
3.151273997465235
 20
2.801493915068956
 42
1.0
  0
LWPOLYLINE
  5
86BC
330
1F
100
AcDbEntity
  8
NETAFIM-L-DETL-PATT-025M
100
AcDbPolyline
 90
        2
 70
     1
 43
0.0
 10
3.303514666428231
 20
3.894176617335965
 42
1.0
 10
3.313825473327941
 20
3.894176617335965
 42
1.0
  0
LWPOLYLINE
  5
86BD
330
1F
100
AcDbEntity
  8
NETAFIM-L-DETL-PATT-025M
100
AcDbPolyline
 90
        2
 70
     1
 43
0.0
 10
3.653629481653499
 20
3.738552734236243
 42
1.0
 10
3.663940288553209
 20
3.738552734236243
 42
1.0
  0
LWPOLYLINE
  5
86BE
330
1F
100
AcDbEntity
  8
NETAFIM-L-DETL-PATT-025M
100
AcDbPolyline
 90
        2
 70
     1
 43
0.0
 10
3.705183516152057
 20
3.872288313282449
 42
1.0
 10
3.715494323051768
 20
3.872288313282449
 42
1.0
  0
LWPOLYLINE
  5
86BF
330
1F
100
AcDbEntity
  8
NETAFIM-L-DETL-PATT-025M
100
AcDbPolyline
 90
        2
 70
     1
 43
0.0
 10
3.519588991957267
 20
4.119441367528839
 42
1.0
 10
3.529899798856977
 20
4.119441367528839
 42
1.0
  0
LWPOLYLINE
  5
86C0
330
1F
100
AcDbEntity
  8
NETAFIM-L-DETL-PATT-025M
100
AcDbPolyline
 90
        2
 70
     1
 43
0.0
 10
3.849231553721534
 20
4.243169522292674
 42
1.0
 10
3.859542360621244
 20
4.243169522292674
 42
1.0
  0
LWPOLYLINE
  5
86C1
330
1F
100
AcDbEntity
  8
NETAFIM-L-DETL-PATT-025M
100
AcDbPolyline
 90
        2
 70
     1
 43
0.0
 10
3.818299133022403
 20
4.026948506737245
 42
1.0
 10
3.828609939922113
 20
4.026948506737245
 42
1.0
  0
LWPOLYLINE
  5
86C2
330
1F
100
AcDbEntity
  8
NETAFIM-L-DETL-PATT-025M
100
AcDbPolyline
 90
        2
 70
     1
 43
0.0
 10
3.509278185057556
 20
3.965084429355329
 42
1.0
 10
3.519588991957267
 20
3.965084429355329
 42
1.0
  0
LWPOLYLINE
  5
86C3
330
1F
100
AcDbEntity
  8
NETAFIM-L-DETL-PATT-025M
100
AcDbPolyline
 90
        2
 70
     1
 43
0.0
 10
3.350281421388348
 20
3.686999336417979
 42
1.0
 10
3.360592228288059
 20
3.686999336417979
 42
1.0
  0
LWPOLYLINE
  5
86C5
330
1F
100
AcDbEntity
  8
NETAFIM-L-DETL-PATT-025M
100
AcDbPolyline
 90
        2
 70
     1
 43
0.0
 10
3.859542360621244
 20
4.428458499157144
 42
1.0
 10
3.869853167520954
 20
4.428458499157144
 42
1.0
  0
LWPOLYLINE
  5
86C6
330
1F
100
AcDbEntity
  8
NETAFIM-L-DETL-PATT-025M
100
AcDbPolyline
 90
        2
 70
     1
 43
0.0
 10
3.993582850317483
 20
4.593126116894307
 42
1.0
 10
4.003893657217194
 20
4.593126116894307
 42
1.0
  0
LWPOLYLINE
  5
86C7
330
1F
100
AcDbEntity
  8
NETAFIM-L-DETL-PATT-025M
100
AcDbPolyline
 90
        2
 70
     1
 43
0.0
 10
3.859542360621244
 20
4.737172375504165
 42
1.0
 10
3.869853167520954
 20
4.737172375504165
 42
1.0
  0
LWPOLYLINE
  5
86C8
330
1F
100
AcDbEntity
  8
NETAFIM-L-DETL-PATT-025M
100
AcDbPolyline
 90
        2
 70
     1
 43
0.0
 10
3.488959830284596
 20
4.706240336813209
 42
1.0
 10
3.499270637184306
 20
4.706240336813209
 42
1.0
  0
LWPOLYLINE
  5
86C9
330
1F
100
AcDbEntity
  8
NETAFIM-L-DETL-PATT-025M
100
AcDbPolyline
 90
        2
 70
     1
 43
0.0
 10
3.797677519222983
 20
4.613747476021615
 42
1.0
 10
3.807988326122693
 20
4.613747476021615
 42
1.0
  0
LWPOLYLINE
  5
86CA
330
1F
100
AcDbEntity
  8
NETAFIM-L-DETL-PATT-025M
100
AcDbPolyline
 90
        2
 70
     1
 43
0.0
 10
3.818299133022403
 20
4.706240336813209
 42
1.0
 10
3.828609939922113
 20
4.706240336813209
 42
1.0
  0
LWPOLYLINE
  5
86CB
330
1F
100
AcDbEntity
  8
NETAFIM-L-DETL-PATT-025M
100
AcDbPolyline
 90
        2
 70
     1
 43
0.0
 10
3.550521412656397
 20
4.572504757767003
 42
1.0
 10
3.560832219556107
 20
4.572504757767003
 42
1.0
  0
LWPOLYLINE
  5
86CC
330
1F
100
AcDbEntity
  8
NETAFIM-L-DETL-PATT-025M
100
AcDbPolyline
 90
        2
 70
     1
 43
0.0
 10
3.602075447154948
 20
4.685618977685901
 42
1.0
 10
3.612386254054658
 20
4.685618977685901
 42
1.0
  0
LWPOLYLINE
  5
86CD
330
1F
100
AcDbEntity
  8
NETAFIM-L-DETL-PATT-025M
100
AcDbPolyline
 90
        2
 70
     1
 43
0.0
 10
3.653629481653499
 20
5.087432225387086
 42
1.0
 10
3.663940288553209
 20
5.087432225387086
 42
1.0
  0
LWPOLYLINE
  5
86CE
330
1F
100
AcDbEntity
  8
NETAFIM-L-DETL-PATT-025M
100
AcDbPolyline
 90
        2
 70
     1
 43
0.0
 10
3.900785588220092
 20
5.138682367924065
 42
1.0
 10
3.911096395119802
 20
5.138682367924065
 42
1.0
  0
LWPOLYLINE
  5
86CF
330
1F
100
AcDbEntity
  8
NETAFIM-L-DETL-PATT-025M
100
AcDbPolyline
 90
        2
 70
     1
 43
0.0
 10
3.972961236518063
 20
5.128371688360413
 42
1.0
 10
3.983272043417773
 20
5.128371688360413
 42
1.0
  0
LWPOLYLINE
  5
86D0
330
1F
100
AcDbEntity
  8
NETAFIM-L-DETL-PATT-025M
100
AcDbPolyline
 90
        2
 70
     1
 43
0.0
 10
3.684561902352637
 20
5.025568148005167
 42
1.0
 10
3.694872709252347
 20
5.025568148005167
 42
1.0
  0
LWPOLYLINE
  5
86D1
330
1F
100
AcDbEntity
  8
NETAFIM-L-DETL-PATT-025M
100
AcDbPolyline
 90
        2
 70
     1
 43
0.0
 10
3.849231553721534
 20
5.056500186696126
 42
1.0
 10
3.859542360621244
 20
5.056500186696126
 42
1.0
  0
LWPOLYLINE
  5
86D2
330
1F
100
AcDbEntity
  8
NETAFIM-L-DETL-035M
100
AcDbPolyline
 90
        7
 70
     0
 43
0.0
 10
6.018209185654864
 20
5.347955854279597
 10
6.059809185654859
 20
5.347955854279597
 10
6.23170918565486
 20
3.217755854279598
 10
6.263009185654862
 20
3.217755854279598
 10
6.263009185654862
 20
3.191755854279598
 10
6.184809185654859
 20
3.191755854279598
 10
6.146857958999841
 20
3.642420792365111
  0
LWPOLYLINE
  5
86D3
330
1F
100
AcDbEntity
  8
NETAFIM-L-DETL-035M
100
AcDbPolyline
 90
        6
 70
     0
 43
0.0
 10
6.146857958999841
 20
3.642420792365111
 10
6.023409185654859
 20
5.108355854279597
 10
5.950509185654862
 20
5.108355854279597
 10
5.950509185654862
 20
5.144855854279597
 10
5.992109185654857
 20
5.144855854279597
 10
6.018209185654864
 20
5.347955854279597
  0
LWPOLYLINE
  5
89AF
330
1F
100
AcDbEntity
  8
NETAFIM-L-DETL-PATT-025M
100
AcDbPolyline
 90
        2
 70
     1
 43
0.0
 10
6.554090083747976
 20
3.040370887361323
 42
1.0
 10
6.564400890647686
 20
3.040370887361323
 42
1.0
  0
LWPOLYLINE
  5
89B0
330
1F
100
AcDbEntity
  8
NETAFIM-L-DETL-PATT-025M
100
AcDbPolyline
 90
        2
 70
     1
 43
0.0
 10
6.700573679366815
 20
3.042796929611593
 42
1.0
 10
6.710884486266525
 20
3.042796929611593
 42
1.0
  0
LWPOLYLINE
  5
89B1
330
1F
100
AcDbEntity
  8
NETAFIM-L-DETL-PATT-025M
100
AcDbPolyline
 90
        2
 70
     1
 43
0.0
 10
6.758789926609875
 20
3.404883735464586
 42
1.0
 10
6.769100733509585
 20
3.404883735464586
 42
1.0
  0
LWPOLYLINE
  5
89B2
330
1F
100
AcDbEntity
  8
NETAFIM-L-DETL-PATT-025M
100
AcDbPolyline
 90
        2
 70
     1
 43
0.0
 10
6.878236738650809
 20
2.642874485623771
 42
1.0
 10
6.888547545550519
 20
2.642874485623771
 42
1.0
  0
LWPOLYLINE
  5
89E2
330
1F
100
AcDbEntity
  8
NETAFIM-L-DETL-035M
  6
Continuous
100
AcDbPolyline
 90
        6
 70
     0
 43
0.0
 10
6.06754689066766
 20
5.252069529566036
 10
6.182309185654862
 20
5.250755854279596
 10
6.595209185654862
 20
5.264655854279595
 10
6.886709185654861
 20
5.278555854279595
 10
7.251009185654861
 20
5.236855854279596
 10
7.506009185654857
 20
5.236855854279596
  0
LWPOLYLINE
  5
89E3
102
{ACAD_REACTORS
330
DF16
102
}
330
1F
100
AcDbEntity
  8
NETAFIM-L-DETL-035M
  6
Continuous
100
AcDbPolyline
 90
        6
 70
     0
 43
0.0
 10
3.121697990239351
 20
5.222955854279597
 10
3.15850918565486
 20
5.250755854279596
 10
3.425709185654863
 20
5.250755854279596
 10
3.765709185654859
 20
5.222955854279597
 10
4.081409185654859
 20
5.250755854279596
 10
4.102365471449619
 20
5.250755854279599
  0
LWPOLYLINE
  5
B704
330
1F
100
AcDbEntity
  8
NETAFIM-L-DETL-PATT-025M
100
AcDbPolyline
 90
        2
 70
     1
 43
0.0
 10
6.972458305021607
 20
4.911574361962923
 42
1.0
 10
6.982769111921317
 20
4.911574361962923
 42
1.0
  0
LWPOLYLINE
  5
B705
330
1F
100
AcDbEntity
  8
NETAFIM-L-DETL-PATT-025M
100
AcDbPolyline
 90
        2
 70
     1
 43
0.0
 10
7.026144537586933
 20
5.053012788780637
 42
1.0
 10
7.036455344486643
 20
5.053012788780637
 42
1.0
  0
LWPOLYLINE
  5
B706
330
1F
100
AcDbEntity
  8
NETAFIM-L-DETL-PATT-025M
100
AcDbPolyline
 90
        2
 70
     1
 43
0.0
 10
6.664982534750979
 20
4.784767466201845
 42
1.0
 10
6.675293341650689
 20
4.784767466201845
 42
1.0
  0
LWPOLYLINE
  5
B707
330
1F
100
AcDbEntity
  8
NETAFIM-L-DETL-PATT-025M
100
AcDbPolyline
 90
        2
 70
     1
 43
0.0
 10
6.250134299349699
 20
4.121469944002559
 42
1.0
 10
6.260445106249409
 20
4.121469944002559
 42
1.0
  0
LWPOLYLINE
  5
B708
330
1F
100
AcDbEntity
  8
NETAFIM-L-DETL-PATT-025M
100
AcDbPolyline
 90
        2
 70
     1
 43
0.0
 10
6.386790201396042
 20
3.765435247890184
 42
1.0
 10
6.397101008295752
 20
3.765435247890184
 42
1.0
  0
LWPOLYLINE
  5
B709
330
1F
100
AcDbEntity
  8
NETAFIM-L-DETL-PATT-025M
100
AcDbPolyline
 90
        2
 70
     1
 43
0.0
 10
6.621057435379345
 20
3.970277131948126
 42
1.0
 10
6.631368242279055
 20
3.970277131948126
 42
1.0
  0
LWPOLYLINE
  5
B70A
330
1F
100
AcDbEntity
  8
NETAFIM-L-DETL-PATT-025M
100
AcDbPolyline
 90
        2
 70
     1
 43
0.0
 10
6.406312467783433
 20
4.058066505481708
 42
1.0
 10
6.416623274683143
 20
4.058066505481708
 42
1.0
  0
LWPOLYLINE
  5
B70B
330
1F
100
AcDbEntity
  8
NETAFIM-L-DETL-PATT-025M
100
AcDbPolyline
 90
        2
 70
     1
 43
0.0
 10
7.035905670780625
 20
3.975154315206797
 42
1.0
 10
7.046216477680335
 20
3.975154315206797
 42
1.0
  0
HATCH
  5
BED2
330
1F
100
AcDbEntity
  8
NETAFIM-L-DETL-PATT-013M
100
AcDbHatch
 10
0.0
 20
0.0
 30
0.0
210
0.0
220
0.0
230
1.0
  2
ANSI31
 70
     0
 71
     1
 91
        2
 92
        7
 72
     0
 73
     1
 93
        4
 10
3.742109185654864
 20
3.167455854279598
 10
3.742109185654864
 20
2.722955854279597
 10
4.339409185654862
 20
2.722955854279597
 10
4.339409185654862
 20
3.167455854279598
 97
        1
330
8660
 92
        7
 72
     0
 73
     1
 93
        4
 10
5.839409185654862
 20
3.167455854279598
 10
5.839409185654862
 20
2.722955854279597
 10
6.436609185654862
 20
2.722955854279597
 10
6.436609185654862
 20
3.167455854279598
 97
        1
330
8661
 75
     0
 76
     1
 52
0.0
 41
1.0
 77
     0
 78
     1
 53
45.0
 43
-28.2778830602133
 44
-5.579014508702289
 45
-0.0883883476483184
 46
0.0883883476483185
 79
     0
 47
0.0023838662305773
 98
        2
 10
4.178840610114857
 20
3.039669345792813
 10
6.030002798611374
 20
2.999143607713531
1001
ACAD
1010
0.0
1020
0.0
1030
0.0
  0
LWPOLYLINE
  5
C3FD
330
1F
100
AcDbEntity
  8
NETAFIM-L-DETL-PATT-025M
100
AcDbPolyline
 90
        2
 70
     1
 43
0.0
 10
6.719669560062204
 20
4.449378110713695
 42
1.0
 10
6.729980366961914
 20
4.449378110713695
 42
1.0
  0
LWPOLYLINE
  5
C3FE
330
1F
100
AcDbEntity
  8
NETAFIM-L-DETL-PATT-025M
100
AcDbPolyline
 90
        2
 70
     1
 43
0.0
 10
6.703900090686172
 20
4.349607123171288
 42
1.0
 10
6.714210897585882
 20
4.349607123171288
 42
1.0
  0
LWPOLYLINE
  5
C3FF
330
1F
100
AcDbEntity
  8
NETAFIM-L-DETL-PATT-025M
100
AcDbPolyline
 90
        2
 70
     1
 43
0.0
 10
6.569859600989939
 20
4.166137677994523
 42
1.0
 10
6.580170407889649
 20
4.166137677994523
 42
1.0
  0
LWPOLYLINE
  5
C400
330
1F
100
AcDbEntity
  8
NETAFIM-L-DETL-PATT-025M
100
AcDbPolyline
 90
        2
 70
     1
 43
0.0
 10
6.927999431570771
 20
4.395382682181264
 42
1.0
 10
6.938310238470482
 20
4.395382682181264
 42
1.0
  0
LWPOLYLINE
  5
C401
330
1F
100
AcDbEntity
  8
NETAFIM-L-DETL-PATT-025M
100
AcDbPolyline
 90
        2
 70
     1
 43
0.0
 10
7.119065547413189
 20
4.838762894734276
 42
1.0
 10
7.129376354312899
 20
4.838762894734276
 42
1.0
  0
LWPOLYLINE
  5
C402
330
1F
100
AcDbEntity
  8
NETAFIM-L-DETL-PATT-025M
100
AcDbPolyline
 90
        2
 70
     1
 43
0.0
 10
7.103296078037157
 20
4.73899190719187
 42
1.0
 10
7.113606884936867
 20
4.73899190719187
 42
1.0
  0
LWPOLYLINE
  5
C403
330
1F
100
AcDbEntity
  8
NETAFIM-L-DETL-PATT-025M
100
AcDbPolyline
 90
        2
 70
     1
 43
0.0
 10
6.969255588340924
 20
4.555522462015105
 42
1.0
 10
6.979566395240635
 20
4.555522462015105
 42
1.0
  0
LWPOLYLINE
  5
C404
330
1F
100
AcDbEntity
  8
NETAFIM-L-DETL-PATT-025M
100
AcDbPolyline
 90
        2
 70
     1
 43
0.0
 10
7.327395418921756
 20
4.784767466201845
 42
1.0
 10
7.337706225821467
 20
4.784767466201845
 42
1.0
  0
LWPOLYLINE
  5
C405
330
1F
100
AcDbEntity
  8
NETAFIM-L-DETL-PATT-025M
100
AcDbPolyline
 90
        2
 70
     1
 43
0.0
 10
7.099582805313179
 20
3.699812394782153
 42
1.0
 10
7.109893612212889
 20
3.699812394782153
 42
1.0
  0
LWPOLYLINE
  5
C406
330
1F
100
AcDbEntity
  8
NETAFIM-L-DETL-PATT-025M
100
AcDbPolyline
 90
        2
 70
     1
 43
0.0
 10
7.083813335937147
 20
3.600041407239746
 42
1.0
 10
7.094124142836857
 20
3.600041407239746
 42
1.0
  0
LWPOLYLINE
  5
C407
330
1F
100
AcDbEntity
  8
NETAFIM-L-DETL-PATT-025M
100
AcDbPolyline
 90
        2
 70
     1
 43
0.0
 10
6.949772846240914
 20
3.416571962062981
 42
1.0
 10
6.960083653140625
 20
3.416571962062981
 42
1.0
  0
LWPOLYLINE
  5
C408
330
1F
100
AcDbEntity
  8
NETAFIM-L-DETL-PATT-025M
100
AcDbPolyline
 90
        2
 70
     1
 43
0.0
 10
7.307912676821747
 20
3.645816966249721
 42
1.0
 10
7.318223483721457
 20
3.645816966249721
 42
1.0
  0
LWPOLYLINE
  5
C40C
330
1F
100
AcDbEntity
  8
NETAFIM-L-DETL-PATT-025M
100
AcDbPolyline
 90
        2
 70
     1
 43
0.0
 10
5.690845950594823
 20
2.351112532613594
 42
1.0
 10
5.701156757494533
 20
2.351112532613594
 42
1.0
  0
LWPOLYLINE
  5
C40E
330
1F
100
AcDbEntity
  8
NETAFIM-L-DETL-PATT-025M
100
AcDbPolyline
 90
        2
 70
     1
 43
0.0
 10
3.493306982302375
 20
3.132561056772519
 42
1.0
 10
3.503617789202085
 20
3.132561056772519
 42
1.0
  0
LWPOLYLINE
  5
C40F
330
1F
100
AcDbEntity
  8
NETAFIM-L-DETL-PATT-025M
100
AcDbPolyline
 90
        2
 70
     1
 43
0.0
 10
5.98537765049625
 20
2.160806003482949
 42
1.0
 10
5.99568845739596
 20
2.160806003482949
 42
1.0
  0
LWPOLYLINE
  5
C410
330
1F
100
AcDbEntity
  8
NETAFIM-L-DETL-PATT-025M
100
AcDbPolyline
 90
        2
 70
     1
 43
0.0
 10
6.343517481077082
 20
2.39005100766969
 42
1.0
 10
6.353828287976792
 20
2.39005100766969
 42
1.0
  0
LWPOLYLINE
  5
C411
330
1F
100
AcDbEntity
  8
NETAFIM-L-DETL-PATT-025M
100
AcDbPolyline
 90
        2
 70
     1
 43
0.0
 10
3.538300547466942
 20
3.290521140041736
 42
1.0
 10
3.548611354366652
 20
3.290521140041736
 42
1.0
  0
LWPOLYLINE
  5
C412
330
1F
100
AcDbEntity
  8
NETAFIM-L-DETL-PATT-025M
100
AcDbPolyline
 90
        2
 70
     1
 43
0.0
 10
3.52253107809091
 20
3.19075015249933
 42
1.0
 10
3.53284188499062
 20
3.19075015249933
 42
1.0
  0
LWPOLYLINE
  5
C413
330
1F
100
AcDbEntity
  8
NETAFIM-L-DETL-PATT-025M
100
AcDbPolyline
 90
        2
 70
     1
 43
0.0
 10
3.388490588394677
 20
3.007280707322564
 42
1.0
 10
3.398801395294388
 20
3.007280707322564
 42
1.0
  0
LWPOLYLINE
  5
C414
330
1F
100
AcDbEntity
  8
NETAFIM-L-DETL-PATT-025M
100
AcDbPolyline
 90
        2
 70
     1
 43
0.0
 10
6.372741576865617
 20
2.4482401033965
 42
1.0
 10
6.383052383765328
 20
2.4482401033965
 42
1.0
  0
LWPOLYLINE
  5
C417
330
1F
100
AcDbEntity
  8
NETAFIM-L-DETL-PATT-025M
100
AcDbPolyline
 90
        2
 70
     1
 43
0.0
 10
4.222190445326642
 20
2.238682970324951
 42
1.0
 10
4.232501252226352
 20
2.238682970324951
 42
1.0
  0
LWPOLYLINE
  5
C419
330
1F
100
AcDbEntity
  8
NETAFIM-L-DETL-PATT-025M
100
AcDbPolyline
 90
        2
 70
     1
 43
0.0
 10
3.797259807593743
 20
2.63873882821241
 42
1.0
 10
3.807570614493453
 20
2.63873882821241
 42
1.0
  0
LWPOLYLINE
  5
C41A
330
1F
100
AcDbEntity
  8
NETAFIM-L-DETL-PATT-025M
100
AcDbPolyline
 90
        2
 70
     1
 43
0.0
 10
3.781490338217711
 20
2.538967840670004
 42
1.0
 10
3.791801145117421
 20
2.538967840670004
 42
1.0
  0
LWPOLYLINE
  5
C41B
330
1F
100
AcDbEntity
  8
NETAFIM-L-DETL-PATT-025M
100
AcDbPolyline
 90
        2
 70
     1
 43
0.0
 10
3.647449848521478
 20
2.355498395493238
 42
1.0
 10
3.657760655421188
 20
2.355498395493238
 42
1.0
  0
LWPOLYLINE
  5
C41C
330
1F
100
AcDbEntity
  8
NETAFIM-L-DETL-PATT-025M
100
AcDbPolyline
 90
        2
 70
     1
 43
0.0
 10
4.00558967910231
 20
2.584743399679979
 42
1.0
 10
4.015900486002021
 20
2.584743399679979
 42
1.0
  0
LWPOLYLINE
  5
C41D
330
1F
100
AcDbEntity
  8
NETAFIM-L-DETL-PATT-025M
100
AcDbPolyline
 90
        2
 70
     1
 43
0.0
 10
3.923897579159376
 20
2.443827810979882
 42
1.0
 10
3.934208386059086
 20
2.443827810979882
 42
1.0
  0
LWPOLYLINE
  5
C41E
330
1F
100
AcDbEntity
  8
NETAFIM-L-DETL-PATT-025M
100
AcDbPolyline
 90
        2
 70
     1
 43
0.0
 10
3.908128109783344
 20
2.344056823437476
 42
1.0
 10
3.918438916683054
 20
2.344056823437476
 42
1.0
  0
LWPOLYLINE
  5
C41F
330
1F
100
AcDbEntity
  8
NETAFIM-L-DETL-PATT-025M
100
AcDbPolyline
 90
        2
 70
     1
 43
0.0
 10
3.774087620087112
 20
2.160587378260711
 42
1.0
 10
3.784398426986822
 20
2.160587378260711
 42
1.0
  0
LWPOLYLINE
  5
C420
330
1F
100
AcDbEntity
  8
NETAFIM-L-DETL-PATT-025M
100
AcDbPolyline
 90
        2
 70
     1
 43
0.0
 10
4.132227450667944
 20
2.389832382447451
 42
1.0
 10
4.142538257567654
 20
2.389832382447451
 42
1.0
  0
LWPOLYLINE
  5
C421
330
1F
100
AcDbEntity
  8
NETAFIM-L-DETL-PATT-025M
100
AcDbPolyline
 90
        2
 70
     1
 43
0.0
 10
5.687084749606018
 20
2.424358565086929
 42
1.0
 10
5.697395556505728
 20
2.424358565086929
 42
1.0
  0
LWPOLYLINE
  5
C422
330
1F
100
AcDbEntity
  8
NETAFIM-L-DETL-PATT-025M
100
AcDbPolyline
 90
        2
 70
     1
 43
0.0
 10
5.671315280229986
 20
2.324587577544523
 42
1.0
 10
5.681626087129696
 20
2.324587577544523
 42
1.0
  0
LWPOLYLINE
  5
C423
330
1F
100
AcDbEntity
  8
NETAFIM-L-DETL-PATT-025M
100
AcDbPolyline
 90
        2
 70
     1
 43
0.0
 10
3.269303463224478
 20
3.158648744667303
 42
1.0
 10
3.279614270124188
 20
3.158648744667303
 42
1.0
  0
LWPOLYLINE
  5
C424
330
1F
100
AcDbEntity
  8
NETAFIM-L-DETL-PATT-025M
100
AcDbPolyline
 90
        2
 70
     1
 43
0.0
 10
5.297430150666517
 20
2.210196927183687
 42
1.0
 10
5.307740957566227
 20
2.210196927183687
 42
1.0
  0
LWPOLYLINE
  5
C425
330
1F
100
AcDbEntity
  8
NETAFIM-L-DETL-PATT-025M
100
AcDbPolyline
 90
        2
 70
     1
 43
0.0
 10
5.281660681290485
 20
2.110425939641281
 42
1.0
 10
5.291971488190196
 20
2.110425939641281
 42
1.0
  0
LWPOLYLINE
  5
C426
330
1F
100
AcDbEntity
  8
NETAFIM-L-DETL-PATT-025M
100
AcDbPolyline
 90
        2
 70
     1
 43
0.0
 10
5.505760022175085
 20
2.156201498651256
 42
1.0
 10
5.516070829074795
 20
2.156201498651256
 42
1.0
  0
LWPOLYLINE
  5
C427
330
1F
100
AcDbEntity
  8
NETAFIM-L-DETL-PATT-025M
100
AcDbPolyline
 90
        2
 70
     1
 43
0.0
 10
4.108983507579122
 20
2.521704761092077
 42
1.0
 10
4.119294314478832
 20
2.521704761092077
 42
1.0
  0
LWPOLYLINE
  5
C428
330
1F
100
AcDbEntity
  8
NETAFIM-L-DETL-PATT-025M
100
AcDbPolyline
 90
        2
 70
     1
 43
0.0
 10
4.09321403820309
 20
2.421933773549671
 42
1.0
 10
4.1035248451028
 20
2.421933773549671
 42
1.0
  0
LWPOLYLINE
  5
C429
330
1F
100
AcDbEntity
  8
NETAFIM-L-DETL-PATT-025M
100
AcDbPolyline
 90
        2
 70
     1
 43
0.0
 10
4.317313379087689
 20
2.467709332559646
 42
1.0
 10
4.327624185987399
 20
2.467709332559646
 42
1.0
  0
LWPOLYLINE
  5
C42B
330
1F
100
AcDbEntity
  8
NETAFIM-L-DETL-PATT-025M
100
AcDbPolyline
 90
        2
 70
     1
 43
0.0
 10
5.145281556036326
 20
2.441403019442621
 42
1.0
 10
5.155592362936037
 20
2.441403019442621
 42
1.0
  0
LWPOLYLINE
  5
C42C
330
1F
100
AcDbEntity
  8
NETAFIM-L-DETL-PATT-025M
100
AcDbPolyline
 90
        2
 70
     1
 43
0.0
 10
5.369380896920926
 20
2.487178578452596
 42
1.0
 10
5.379691703820636
 20
2.487178578452596
 42
1.0
  0
LWPOLYLINE
  5
C42D
330
1F
100
AcDbEntity
  8
NETAFIM-L-DETL-PATT-025M
100
AcDbPolyline
 90
        2
 70
     1
 43
0.0
 10
5.313223412636947
 20
2.316341295214906
 42
1.0
 10
5.323534219536657
 20
2.316341295214906
 42
1.0
  0
LWPOLYLINE
  5
C42E
330
1F
100
AcDbEntity
  8
NETAFIM-L-DETL-PATT-025M
100
AcDbPolyline
 90
        2
 70
     1
 43
0.0
 10
5.194036287466747
 20
2.467709332559644
 42
1.0
 10
5.204347094366458
 20
2.467709332559644
 42
1.0
  0
LWPOLYLINE
  5
C42F
330
1F
100
AcDbEntity
  8
NETAFIM-L-DETL-PATT-025M
100
AcDbPolyline
 90
        2
 70
     1
 43
0.0
 10
4.709258754766207
 20
2.248198951319379
 42
1.0
 10
4.719569561665917
 20
2.248198951319379
 42
1.0
  0
LWPOLYLINE
  5
C430
330
1F
100
AcDbEntity
  8
NETAFIM-L-DETL-PATT-025M
100
AcDbPolyline
 90
        2
 70
     1
 43
0.0
 10
4.590071629596007
 20
2.399566988664117
 42
1.0
 10
4.600382436495717
 20
2.399566988664117
 42
1.0
  0
LWPOLYLINE
  5
C431
330
1F
100
AcDbEntity
  8
NETAFIM-L-DETL-PATT-025M
100
AcDbPolyline
 90
        2
 70
     1
 43
0.0
 10
4.358569570580808
 20
2.306606672268427
 42
1.0
 10
4.368880377480518
 20
2.306606672268427
 42
1.0
  0
LWPOLYLINE
  5
C432
330
1F
100
AcDbEntity
  8
NETAFIM-L-DETL-PATT-025M
100
AcDbPolyline
 90
        2
 70
     1
 43
0.0
 10
4.239382445410608
 20
2.457974709613166
 42
1.0
 10
4.249693252310319
 20
2.457974709613166
 42
1.0
  0
LWPOLYLINE
  5
C433
330
1F
100
AcDbEntity
  8
NETAFIM-L-DETL-PATT-025M
100
AcDbPolyline
 90
        2
 70
     1
 43
0.0
 10
3.491588015890275
 20
2.365014393217476
 42
1.0
 10
3.501898822789986
 20
2.365014393217476
 42
1.0
  0
LWPOLYLINE
  5
D6C4
330
1F
100
AcDbEntity
  8
NETAFIM-L-DETL-035M
100
AcDbPolyline
 90
        2
 70
     0
 43
0.0
 10
3.220646655306758
 20
3.533248189448029
 42
-34.47676783439607
 10
3.212417721084172
 20
3.531245965243481
 42
-34.47676783439607
  0
LWPOLYLINE
  5
D6C5
330
1F
100
AcDbEntity
  8
NETAFIM-L-DETL-035M
100
AcDbPolyline
 90
        2
 70
     0
 43
0.0
 10
3.233775224310779
 20
3.534437483806348
 42
-1.0
 10
3.233775224310797
 20
3.680552483806334
 42
-142.2021124146802
  0
ARC
  5
D717
330
1F
100
AcDbEntity
  8
NETAFIM-L-DETL-035M
100
AcDbCircle
 10
5.060124105736267
 20
3.832929607938233
 30
0.0
 40
0.1951509586353832
100
AcDbArc
 50
211.7776030058394
 51
328.2223969941603
  0
LWPOLYLINE
  5
D718
330
1F
100
AcDbEntity
  8
NETAFIM-L-DETL-035M
100
AcDbPolyline
 90
        3
 70
     0
 43
0.0
 10
5.093684306266812
 20
3.342473389292942
 10
4.681088277934176
 20
3.342473389292942
 10
4.681088277934176
 20
3.730158521005265
  0
LWPOLYLINE
  5
D719
330
1F
100
AcDbEntity
  8
NETAFIM-L-DETL-035M
100
AcDbPolyline
 90
        2
 70
     0
 43
0.0
 10
4.681088277934176
 20
3.388322483806334
 10
4.001762380899368
 20
3.388322483806334
  0
LWPOLYLINE
  5
D71A
330
1F
100
AcDbEntity
  8
NETAFIM-L-DETL-035M
100
AcDbPolyline
 90
        2
 70
     0
 43
0.0
 10
4.681088277934176
 20
3.680552483806334
 10
4.026371544000692
 20
3.680552483806334
  0
LWPOLYLINE
  5
D7B4
330
1F
100
AcDbEntity
  8
NETAFIM-L-DETL-035M
100
AcDbPolyline
 90
        4
 70
     0
 43
0.0
 10
4.894226545938284
 20
3.730158521005265
 10
4.894226545938284
 20
3.951090170630768
 10
5.226021665534251
 20
3.951090170630768
 10
5.226021665534251
 20
3.730158521005265
  0
LWPOLYLINE
  5
D7B5
330
1F
100
AcDbEntity
  8
NETAFIM-L-DETL-035M
100
AcDbPolyline
 90
        2
 70
     0
 43
0.0
 10
5.27824658018051
 20
3.730158521005265
 10
5.27824658018051
 20
3.543831649887648
  0
LWPOLYLINE
  5
D7B6
330
1F
100
AcDbEntity
  8
NETAFIM-L-DETL-035M
100
AcDbPolyline
 90
        2
 70
     0
 43
0.0
 10
4.681088277934176
 20
3.730158521005265
 10
4.894226545938284
 20
3.730158521005265
  0
LWPOLYLINE
  5
D7B8
330
1F
100
AcDbEntity
  8
NETAFIM-L-DETL-035M
100
AcDbPolyline
 90
        2
 70
     0
 43
0.0
 10
5.093684306266812
 20
3.342473389292942
 42
0.3777206736710655
 10
5.27824658018051
 20
3.543831649887657
 42
-0.8745940189751568
  0
LWPOLYLINE
  5
D7FB
330
1F
100
AcDbEntity
  8
NETAFIM-L-DETL-035M
100
AcDbPolyline
 90
        2
 70
     0
 43
0.0
 10
5.226021665534251
 20
3.730158521005265
 10
5.27824658018051
 20
3.730158521005265
  0
LWPOLYLINE
  5
D7FC
330
1F
100
AcDbEntity
  8
NETAFIM-L-DETL-035M
100
AcDbPolyline
 90
        2
 70
     0
 43
0.0
 10
4.794019725618998
 20
4.657932438802813
 10
5.322546252730919
 20
4.657932438802813
  0
LWPOLYLINE
  5
D7FD
330
1F
100
AcDbEntity
  8
NETAFIM-L-DETL-013M
100
AcDbPolyline
 90
        2
 70
     0
 43
0.0
 10
4.893254561897382
 20
5.036248010420244
 10
5.226952423573148
 20
5.036248010420244
  0
LWPOLYLINE
  5
D7FE
330
1F
100
AcDbEntity
  8
NETAFIM-L-DETL-035M
100
AcDbPolyline
 90
        2
 70
     0
 43
0.0
 10
4.916461717509289
 20
5.091999781822448
 10
5.203745267961242
 20
5.091999781822448
  0
LWPOLYLINE
  5
D7FF
330
1F
100
AcDbEntity
  8
NETAFIM-L-DETL-035M
100
AcDbPolyline
 90
        4
 70
     0
 43
0.0
 10
5.360721258670029
 20
4.695997836488992
 10
5.360721258670029
 20
4.804144750710921
 42
0.1609971327126166
 10
5.318596820316553
 20
4.931577360805597
 42
0.0403378844917213
 10
5.226952423573148
 20
5.036248010420244
  0
LWPOLYLINE
  5
D800
330
1F
100
AcDbEntity
  8
NETAFIM-L-DETL-035M
100
AcDbPolyline
 90
        3
 70
     0
 43
0.0
 10
5.226952423573148
 20
5.036248010420244
 42
-0.2649499572880882
 10
5.217224438416952
 20
5.069853309779436
 42
0.412791113642961
 10
5.203745267961242
 20
5.091999781822448
 42
-3.21869370746929
  0
LWPOLYLINE
  5
D801
330
1F
100
AcDbEntity
  8
NETAFIM-L-DETL-035M
100
AcDbPolyline
 90
        4
 70
     0
 43
0.0
 10
4.759485726800502
 20
4.689965904752245
 10
4.759485726800502
 20
4.804144750710921
 42
-0.1609971327126166
 10
4.801610165153977
 20
4.931577360805597
 42
-0.0403378844917213
 10
4.893254561897382
 20
5.036248010420244
  0
LWPOLYLINE
  5
D802
330
1F
100
AcDbEntity
  8
NETAFIM-L-DETL-035M
100
AcDbPolyline
 90
        3
 70
     0
 43
0.0
 10
4.893254561897382
 20
5.036248010420244
 42
0.2649499572880882
 10
4.902982547053571
 20
5.069853309779436
 42
-0.412791113642961
 10
4.916461717509289
 20
5.091999781822448
 42
3.21869370746929
  0
LWPOLYLINE
  5
D803
330
1F
100
AcDbEntity
  8
NETAFIM-L-DETL-035M
100
AcDbPolyline
 90
        2
 70
     0
 43
0.0
 10
5.322546252730905
 20
4.657932438802813
 42
0.4150559781415394
 10
5.360721258670029
 20
4.696217368608813
 42
-1.223725651360562
  0
LWPOLYLINE
  5
D804
330
1F
100
AcDbEntity
  8
NETAFIM-L-DETL-035M
100
AcDbPolyline
 90
        2
 70
     0
 43
0.0
 10
4.797160126624621
 20
4.657953753656819
 42
-0.3674800372700118
 10
4.759485726800502
 20
4.689965904752245
 42
1.223725651360562
  0
LWPOLYLINE
  5
D805
330
1F
100
AcDbEntity
  8
NETAFIM-L-DETL-013M
100
AcDbPolyline
 90
        2
 70
     0
 43
0.0
 10
5.060103492735255
 20
4.619365219813801
 10
4.728127924041022
 20
4.619365219813801
  0
LWPOLYLINE
  5
D806
330
1F
100
AcDbEntity
  8
NETAFIM-L-DETL-013M
100
AcDbPolyline
 90
        2
 70
     0
 43
0.0
 10
5.060103492735255
 20
4.619365219813801
 10
5.392079061429509
 20
4.619365219813801
  0
LWPOLYLINE
  5
D807
330
1F
100
AcDbEntity
  8
NETAFIM-L-DETL-025M
100
AcDbPolyline
 90
        3
 70
     0
 43
0.0
 10
5.060103492735255
 20
4.556709668736779
 10
4.798974166084011
 20
4.556709668736779
 10
4.776548013325044
 20
4.619365219813801
  0
LWPOLYLINE
  5
D808
330
1F
100
AcDbEntity
  8
NETAFIM-L-DETL-025M
100
AcDbPolyline
 90
        3
 70
     0
 43
0.0
 10
5.060103492735255
 20
4.556709668736779
 10
5.321232819386512
 20
4.556709668736779
 10
5.343658972145487
 20
4.619365219813801
  0
LWPOLYLINE
  5
D809
330
1F
100
AcDbEntity
  8
NETAFIM-L-DETL-025M
100
AcDbPolyline
 90
        2
 70
     0
 43
0.0
 10
4.776548013325044
 20
4.619365219813801
 10
4.797160126624621
 20
4.657953753656819
  0
LWPOLYLINE
  5
D80A
330
1F
100
AcDbEntity
  8
NETAFIM-L-DETL-025M
100
AcDbPolyline
 90
        2
 70
     0
 43
0.0
 10
5.343658972145487
 20
4.619365219813801
 10
5.322546252730905
 20
4.657932438802813
  0
LWPOLYLINE
  5
D80B
330
1F
100
AcDbEntity
  8
NETAFIM-L-DETL-013M
100
AcDbPolyline
 90
        3
 70
     0
 43
0.0
 10
5.052421468992346
 20
3.951090170630768
 10
4.932723083440873
 20
3.951090170630768
 10
4.932723083440873
 20
4.078891541395478
  0
LWPOLYLINE
  5
D80C
330
1F
100
AcDbEntity
  8
NETAFIM-L-DETL-013M
100
AcDbPolyline
 90
        3
 70
     0
 43
0.0
 10
5.052421468992346
 20
3.951090170630768
 10
5.187483902029658
 20
3.951090170630768
 10
5.187483902029658
 20
4.078891541395478
  0
LWPOLYLINE
  5
D80D
330
1F
100
AcDbEntity
  8
NETAFIM-L-DETL-025M
100
AcDbPolyline
 90
        4
 70
     0
 43
0.0
 39
0.254760818588787
 10
4.932723083440873
 20
4.078891541395478
 10
4.855013728856274
 20
4.078891541395478
 10
4.855013728856274
 20
4.150224234478617
 10
5.060103492735255
 20
4.150224234478617
  0
LWPOLYLINE
  5
D80E
330
1F
100
AcDbEntity
  8
NETAFIM-L-DETL-025M
100
AcDbPolyline
 90
        2
 70
     0
 43
0.0
 39
0.254760818588787
 10
4.932723083440873
 20
4.078891541395478
 10
5.060103492735255
 20
4.078891541395478
  0
LWPOLYLINE
  5
D80F
330
1F
100
AcDbEntity
  8
NETAFIM-L-DETL-025M
100
AcDbPolyline
 90
        4
 70
     0
 43
0.0
 39
0.254760818588787
 10
5.187483902029658
 20
4.078891541395478
 10
5.265193256614242
 20
4.078891541395478
 10
5.265193256614242
 20
4.150224234478617
 10
5.060103492735255
 20
4.150224234478617
  0
LWPOLYLINE
  5
D810
330
1F
100
AcDbEntity
  8
NETAFIM-L-DETL-025M
100
AcDbPolyline
 90
        2
 70
     0
 43
0.0
 39
0.254760818588787
 10
5.187483902029658
 20
4.078891541395478
 10
5.060103492735255
 20
4.078891541395478
  0
LWPOLYLINE
  5
D811
330
1F
100
AcDbEntity
  8
NETAFIM-L-DETL-025M
100
AcDbPolyline
 90
        4
 70
     0
 43
0.0
 39
0.254760818588787
 10
4.932723083440873
 20
4.188334490703166
 10
4.855013728856274
 20
4.188334490703166
 10
4.855013728856274
 20
4.259667183786305
 10
5.060103492735255
 20
4.259667183786305
  0
LWPOLYLINE
  5
D812
330
1F
100
AcDbEntity
  8
NETAFIM-L-DETL-025M
100
AcDbPolyline
 90
        4
 70
     0
 43
0.0
 39
0.254760818588787
 10
5.187483902029658
 20
4.188334490703166
 10
5.265193256614242
 20
4.188334490703166
 10
5.265193256614242
 20
4.259667183786305
 10
5.060103492735255
 20
4.259667183786305
  0
LWPOLYLINE
  5
D813
330
1F
100
AcDbEntity
  8
NETAFIM-L-DETL-025M
100
AcDbPolyline
 90
        2
 70
     0
 43
0.0
 39
0.254760818588787
 10
5.187483902029658
 20
4.188334490703166
 10
5.060103492735255
 20
4.188334490703166
  0
LWPOLYLINE
  5
D814
330
1F
100
AcDbEntity
  8
NETAFIM-L-DETL-025M
100
AcDbPolyline
 90
        2
 70
     0
 43
0.0
 39
0.254760818588787
 10
4.932723083440873
 20
4.188334490703166
 10
5.060103492735255
 20
4.188334490703166
  0
LWPOLYLINE
  5
D815
330
1F
100
AcDbEntity
  8
NETAFIM-L-DETL-013M
100
AcDbPolyline
 90
        2
 70
     0
 43
0.0
 39
0.254760818588787
 10
4.911602766706575
 20
4.150224234478617
 10
4.911602766706575
 20
4.188334490703166
  0
LWPOLYLINE
  5
D816
330
1F
100
AcDbEntity
  8
NETAFIM-L-DETL-013M
100
AcDbPolyline
 90
        2
 70
     0
 43
0.0
 39
0.254760818588787
 10
5.208604218763955
 20
4.150224234478617
 10
5.208604218763955
 20
4.188334490703166
  0
LWPOLYLINE
  5
D817
330
1F
100
AcDbEntity
  8
NETAFIM-L-DETL-035M
100
AcDbPolyline
 90
        3
 70
     0
 43
0.0
 39
0.254760818588787
 10
4.842988252460745
 20
4.503612209275928
 10
4.842988252460745
 20
4.316831839541741
 42
0.1555554904381475
 10
4.893957388643588
 20
4.259667183786305
 42
1.050817933687122
  0
LWPOLYLINE
  5
D818
330
1F
100
AcDbEntity
  8
NETAFIM-L-DETL-035M
100
AcDbPolyline
 90
        2
 70
     0
 43
0.0
 39
0.254760818588787
 10
4.842988252460745
 20
4.503612209275928
 42
-0.3014495162563211
 10
4.880888372160928
 20
4.556709668736779
 42
-0.8642570512216012
  0
LWPOLYLINE
  5
D819
330
1F
100
AcDbEntity
  8
NETAFIM-L-DETL-035M
100
AcDbPolyline
 90
        2
 70
     0
 43
0.0
 39
0.254760818588787
 10
5.277218733009778
 20
4.503612209275928
 42
0.3014495162563211
 10
5.239318613309588
 20
4.556709668736779
 42
0.8642570512216012
  0
LWPOLYLINE
  5
D81A
330
1F
100
AcDbEntity
  8
NETAFIM-L-DETL-035M
100
AcDbPolyline
 90
        3
 70
     0
 43
0.0
 39
0.254760818588787
 10
5.277218733009778
 20
4.503612209275928
 10
5.277218733009778
 20
4.316831839541741
 42
-0.1555554904381475
 10
5.226249596826935
 20
4.259667183786305
 42
-1.050817933687122
  0
LWPOLYLINE
  5
D81D
330
1F
100
AcDbEntity
  8
NETAFIM-L-DETL-013M
100
AcDbPolyline
 90
        2
 70
     0
 43
0.0
 39
0.254760818588787
 10
5.060531532478908
 20
3.951090170630768
 10
5.187483902029658
 20
3.963397789257644
  0
LWPOLYLINE
  5
D81E
330
1F
100
AcDbEntity
  8
NETAFIM-L-DETL-013M
100
AcDbPolyline
 90
        2
 70
     0
 43
0.0
 39
0.254760818588787
 10
4.932723083440873
 20
3.962447857562061
 10
5.187483902029658
 20
3.987146088933059
  0
LWPOLYLINE
  5
D81F
330
1F
100
AcDbEntity
  8
NETAFIM-L-DETL-013M
100
AcDbPolyline
 90
        2
 70
     0
 43
0.0
 39
0.254760818588787
 10
4.932723083440873
 20
3.987146088933059
 10
5.187483902029658
 20
4.011844320304057
  0
LWPOLYLINE
  5
D820
330
1F
100
AcDbEntity
  8
NETAFIM-L-DETL-013M
100
AcDbPolyline
 90
        2
 70
     0
 43
0.0
 39
0.254760818588787
 10
4.932723083440873
 20
4.011844313018244
 10
5.187483902029658
 20
4.036542544389245
  0
LWPOLYLINE
  5
D821
330
1F
100
AcDbEntity
  8
NETAFIM-L-DETL-013M
100
AcDbPolyline
 90
        2
 70
     0
 43
0.0
 39
0.254760818588787
 10
4.932723083440873
 20
4.03559261269366
 10
5.187483902029658
 20
4.060290844064658
  0
LWPOLYLINE
  5
D822
330
1F
100
AcDbEntity
  8
NETAFIM-L-DETL-013M
100
AcDbPolyline
 90
        2
 70
     0
 43
0.0
 39
0.254760818588787
 10
4.932723083440873
 20
4.056491117282321
 10
5.163782153950041
 20
4.078891541395478
  0
LWPOLYLINE
  5
D824
330
1F
100
AcDbEntity
  8
NETAFIM-L-DETL-013M
100
AcDbPolyline
 90
        2
 70
     0
 43
0.0
 39
0.254760818588787
 10
4.871207670046107
 20
4.319931436042157
 10
5.250948705487498
 20
4.319931436042157
  0
LWPOLYLINE
  5
D825
330
1F
100
AcDbEntity
  8
NETAFIM-L-DETL-013M
100
AcDbPolyline
 90
        2
 70
     0
 43
0.0
 39
0.254760818588787
 10
4.871207670046107
 20
4.505791126623364
 10
5.250948705487498
 20
4.505791126623364
  0
LWPOLYLINE
  5
D826
330
1F
100
AcDbEntity
  8
NETAFIM-L-DETL-013M
100
AcDbPolyline
 90
        2
 70
     0
 43
0.0
 39
0.254760818588787
 10
4.939786141268744
 20
4.259667183786305
 10
4.939786141268744
 20
4.188334490703166
  0
LWPOLYLINE
  5
D827
330
1F
100
AcDbEntity
  8
NETAFIM-L-DETL-013M
100
AcDbPolyline
 90
        2
 70
     0
 43
0.0
 39
0.254760818588787
 10
4.939786141268744
 20
4.150224234478617
 10
4.939786141268744
 20
4.078891541395478
  0
LWPOLYLINE
  5
D828
330
1F
100
AcDbEntity
  8
NETAFIM-L-DETL-013M
100
AcDbPolyline
 90
        2
 70
     0
 43
0.0
 39
0.254760818588787
 10
4.946198751681404
 20
4.259667183786305
 10
4.946198751681404
 20
4.188334490703166
  0
LWPOLYLINE
  5
D829
330
1F
100
AcDbEntity
  8
NETAFIM-L-DETL-013M
100
AcDbPolyline
 90
        2
 70
     0
 43
0.0
 39
0.254760818588787
 10
4.946198751681404
 20
4.150224234478617
 10
4.946198751681404
 20
4.078891541395478
  0
LWPOLYLINE
  5
D82A
330
1F
100
AcDbEntity
  8
NETAFIM-L-DETL-013M
100
AcDbPolyline
 90
        2
 70
     0
 43
0.0
 39
0.254760818588787
 10
5.117506982767057
 20
4.259667183786305
 10
5.117506982767057
 20
4.188334490703166
  0
LWPOLYLINE
  5
D82B
330
1F
100
AcDbEntity
  8
NETAFIM-L-DETL-013M
100
AcDbPolyline
 90
        2
 70
     0
 43
0.0
 39
0.254760818588787
 10
5.123919593179717
 20
4.259667183786305
 10
5.123919593179717
 20
4.188334490703166
  0
LWPOLYLINE
  5
D82C
330
1F
100
AcDbEntity
  8
NETAFIM-L-DETL-013M
100
AcDbPolyline
 90
        2
 70
     0
 43
0.0
 39
0.254760818588787
 10
5.123919593179717
 20
4.150224234478617
 10
5.123919593179717
 20
4.078891541395478
  0
LWPOLYLINE
  5
D82D
330
1F
100
AcDbEntity
  8
NETAFIM-L-DETL-013M
100
AcDbPolyline
 90
        2
 70
     0
 43
0.0
 39
0.254760818588787
 10
5.117506982767057
 20
4.150224234478617
 10
5.117506982767057
 20
4.078891541395478
  0
LWPOLYLINE
  5
D832
330
1F
100
AcDbEntity
  8
NETAFIM-L-DETL-035M
100
AcDbPolyline
 90
        2
 70
     0
 43
0.0
 10
3.975655322456876
 20
3.680552483806334
 10
3.23377522431079
 20
3.680552483806334
  0
LWPOLYLINE
  5
D833
330
1F
100
AcDbEntity
  8
NETAFIM-L-DETL-035M
100
AcDbPolyline
 90
        2
 70
     0
 43
0.0
 10
3.952073340952789
 20
3.388322483806334
 10
3.23377522431079
 20
3.388322483806334
  0
LWPOLYLINE
  5
DC2B
330
1F
100
AcDbEntity
  8
NETAFIM-L-DETL-PATT-025M
100
AcDbPolyline
 90
        2
 70
     1
 43
0.0
 10
6.156426227044963
 20
2.317801741421118
 42
1.0
 10
6.166737033944674
 20
2.317801741421118
 42
1.0
  0
LINE
  5
DC2C
330
1F
100
AcDbEntity
  8
NETAFIM-L-DETL-PATT-013M
100
AcDbLine
 10
5.775157235654855
 20
2.516332554279597
 30
0.0
 11
5.742018885654861
 21
2.516332554279597
 31
0.0
  0
LINE
  5
DC2D
330
1F
100
AcDbEntity
  8
NETAFIM-L-DETL-PATT-013M
100
AcDbLine
 10
5.425157235654861
 20
2.516332554279597
 30
0.0
 11
5.392018885654859
 21
2.516332554279597
 31
0.0
  0
LINE
  5
DC2E
330
1F
100
AcDbEntity
  8
NETAFIM-L-DETL-PATT-013M
100
AcDbLine
 10
5.075157235654859
 20
2.516332554279597
 30
0.0
 11
5.042018885654858
 21
2.516332554279597
 31
0.0
  0
LINE
  5
DC2F
330
1F
100
AcDbEntity
  8
NETAFIM-L-DETL-PATT-013M
100
AcDbLine
 10
5.775157235654855
 20
2.866332554279598
 30
0.0
 11
5.742018885654861
 21
2.866332554279598
 31
0.0
  0
LINE
  5
DC30
330
1F
100
AcDbEntity
  8
NETAFIM-L-DETL-PATT-013M
100
AcDbLine
 10
5.425157235654861
 20
2.866332554279598
 30
0.0
 11
5.392018885654859
 21
2.866332554279598
 31
0.0
  0
LINE
  5
DC31
330
1F
100
AcDbEntity
  8
NETAFIM-L-DETL-PATT-013M
100
AcDbLine
 10
5.075157235654859
 20
2.866332554279598
 30
0.0
 11
5.042018885654858
 21
2.866332554279598
 31
0.0
  0
LINE
  5
DC32
330
1F
100
AcDbEntity
  8
NETAFIM-L-DETL-PATT-013M
100
AcDbLine
 10
4.725157235654858
 20
2.866332554279598
 30
0.0
 11
4.692018885654857
 21
2.866332554279598
 31
0.0
  0
LINE
  5
DC33
330
1F
100
AcDbEntity
  8
NETAFIM-L-DETL-PATT-013M
100
AcDbLine
 10
4.375157235654857
 20
2.866332554279598
 30
0.0
 11
4.342018885654862
 21
2.866332554279598
 31
0.0
  0
LINE
  5
DC34
330
1F
100
AcDbEntity
  8
NETAFIM-L-DETL-PATT-013M
100
AcDbLine
 10
5.448593479341081
 20
2.492899151657437
 30
0.0
 11
5.42516112733875
 21
2.516331503659771
 31
0.0
  0
LINE
  5
DC35
330
1F
100
AcDbEntity
  8
NETAFIM-L-DETL-PATT-013M
100
AcDbLine
 10
5.098593618521324
 20
2.842899012477198
 30
0.0
 11
5.075161266518993
 21
2.86633136447953
 31
0.0
  0
LINE
  5
DC36
330
1F
100
AcDbEntity
  8
NETAFIM-L-DETL-PATT-013M
100
AcDbLine
 10
5.098593371033953
 20
2.492899151657437
 30
0.0
 11
5.075161019031614
 21
2.516331503659768
 31
0.0
  0
LINE
  5
DC37
330
1F
100
AcDbEntity
  8
NETAFIM-L-DETL-PATT-013M
100
AcDbLine
 10
4.748593510214188
 20
2.842899012477196
 30
0.0
 11
4.725161158211857
 21
2.866331364479528
 31
0.0
  0
LINE
  5
DC38
330
1F
100
AcDbEntity
  8
NETAFIM-L-DETL-PATT-013M
100
AcDbLine
 10
4.398593401907053
 20
2.842899012477196
 30
0.0
 11
4.375161049904722
 21
2.866331364479528
 31
0.0
  0
LINE
  5
DC39
330
1F
100
AcDbEntity
  8
NETAFIM-L-DETL-PATT-013M
100
AcDbLine
 10
5.786331455652184
 20
2.505161283653467
 30
0.0
 11
5.775161235645885
 21
2.516331503659768
 31
0.0
  0
LINE
  5
DC3A
330
1F
100
AcDbEntity
  8
NETAFIM-L-DETL-PATT-013M
100
AcDbLine
 10
5.448593726828459
 20
2.842899012477194
 30
0.0
 11
5.425161374826121
 21
2.866331364479528
 31
0.0
  0
LINE
  5
DC3B
330
1F
100
AcDbEntity
  8
NETAFIM-L-DETL-PATT-013M
100
AcDbLine
 10
5.798593835135587
 20
2.842899012477196
 30
0.0
 11
5.775161483133256
 21
2.866331364479528
 31
0.0
  0
LINE
  5
DC3C
330
1F
100
AcDbEntity
  8
NETAFIM-L-DETL-PATT-013M
100
AcDbLine
 10
5.098589735654858
 20
2.459762054279598
 30
0.0
 11
5.098589735654858
 21
2.492900404279597
 31
0.0
  0
LINE
  5
DC3D
330
1F
100
AcDbEntity
  8
NETAFIM-L-DETL-PATT-013M
100
AcDbLine
 10
5.098589735654858
 20
2.809762054279597
 30
0.0
 11
5.098589735654858
 21
2.842900404279597
 31
0.0
  0
LINE
  5
DC3E
330
1F
100
AcDbEntity
  8
NETAFIM-L-DETL-PATT-013M
100
AcDbLine
 10
4.748589735654856
 20
2.809762054279597
 30
0.0
 11
4.748589735654856
 21
2.842900404279597
 31
0.0
  0
LINE
  5
DC3F
330
1F
100
AcDbEntity
  8
NETAFIM-L-DETL-PATT-013M
100
AcDbLine
 10
4.398589735654855
 20
2.809762054279597
 30
0.0
 11
4.398589735654855
 21
2.842900404279597
 31
0.0
  0
LINE
  5
DC40
330
1F
100
AcDbEntity
  8
NETAFIM-L-DETL-PATT-013M
100
AcDbLine
 10
4.398589735654855
 20
3.159762054279598
 30
0.0
 11
4.398589735654855
 21
3.168092962439041
 31
0.0
  0
LINE
  5
DC41
330
1F
100
AcDbEntity
  8
NETAFIM-L-DETL-PATT-013M
100
AcDbLine
 10
5.448589735654859
 20
2.468268103217465
 30
0.0
 11
5.448589735654859
 21
2.492900404279597
 31
0.0
  0
LINE
  5
DC42
330
1F
100
AcDbEntity
  8
NETAFIM-L-DETL-PATT-013M
100
AcDbLine
 10
5.448589735654859
 20
2.809762054279597
 30
0.0
 11
5.448589735654859
 21
2.842900404279597
 31
0.0
  0
LINE
  5
DC43
330
1F
100
AcDbEntity
  8
NETAFIM-L-DETL-PATT-013M
100
AcDbLine
 10
5.798589735654861
 20
2.809762054279597
 30
0.0
 11
5.798589735654861
 21
2.842900404279597
 31
0.0
  0
LINE
  5
DC44
330
1F
100
AcDbEntity
  8
NETAFIM-L-DETL-PATT-013M
100
AcDbLine
 10
5.075155426311734
 20
2.786327420015076
 30
0.0
 11
5.098587778314072
 21
2.809759772017408
 31
0.0
  0
LINE
  5
DC45
330
1F
100
AcDbEntity
  8
NETAFIM-L-DETL-PATT-013M
100
AcDbLine
 10
5.425155287131492
 20
3.136327280834835
 30
0.0
 11
5.434750763285247
 21
3.145922756988591
 31
0.0
  0
LINE
  5
DC46
330
1F
100
AcDbEntity
  8
NETAFIM-L-DETL-PATT-013M
100
AcDbLine
 10
4.725155565491977
 20
2.786327667502448
 30
0.0
 11
4.748587917494308
 21
2.809760019504783
 31
0.0
  0
LINE
  5
DC47
330
1F
100
AcDbEntity
  8
NETAFIM-L-DETL-PATT-013M
100
AcDbLine
 10
4.375155704672213
 20
2.786327914989823
 30
0.0
 11
4.398588056674551
 21
2.809760266992156
 31
0.0
  0
LINE
  5
DC48
330
1F
100
AcDbEntity
  8
NETAFIM-L-DETL-PATT-013M
100
AcDbLine
 10
4.725155565491977
 20
3.136327775809581
 30
0.0
 11
4.736276883652561
 21
3.147449093970168
 31
0.0
  0
LINE
  5
DC49
330
1F
100
AcDbEntity
  8
NETAFIM-L-DETL-PATT-013M
100
AcDbLine
 10
4.375155704672213
 20
3.136328023296956
 30
0.0
 11
4.398588056674551
 21
3.15976037529929
 31
0.0
  0
LINE
  5
DC4A
330
1F
100
AcDbEntity
  8
NETAFIM-L-DETL-PATT-013M
100
AcDbLine
 10
5.092215288846876
 20
2.453387174243084
 30
0.0
 11
5.098587778314065
 21
2.459759663710276
 31
0.0
  0
LINE
  5
DC4B
330
1F
100
AcDbEntity
  8
NETAFIM-L-DETL-PATT-013M
100
AcDbLine
 10
5.425155287131492
 20
2.786327172527703
 30
0.0
 11
5.44858763913383
 21
2.809759524530035
 31
0.0
  0
LINE
  5
DC4C
330
1F
100
AcDbEntity
  8
NETAFIM-L-DETL-PATT-013M
100
AcDbLine
 10
5.775155147951256
 20
2.786326925040328
 30
0.0
 11
5.798587499953587
 21
2.809759277042663
 31
0.0
  0
LINE
  5
DC4D
330
1F
100
AcDbEntity
  8
NETAFIM-L-DETL-PATT-013M
100
AcDbLine
 10
4.342018885654855
 20
2.786329554279597
 30
0.0
 11
4.375157235654857
 21
2.786329554279597
 31
0.0
  0
LINE
  5
DC4E
330
1F
100
AcDbEntity
  8
NETAFIM-L-DETL-PATT-013M
100
AcDbLine
 10
4.692018885654857
 20
2.786329554279597
 30
0.0
 11
4.725157235654858
 21
2.786329554279597
 31
0.0
  0
LINE
  5
DC4F
330
1F
100
AcDbEntity
  8
NETAFIM-L-DETL-PATT-013M
100
AcDbLine
 10
5.042018885654858
 20
2.786329554279597
 30
0.0
 11
5.075157235654859
 21
2.786329554279597
 31
0.0
  0
LINE
  5
DC50
330
1F
100
AcDbEntity
  8
NETAFIM-L-DETL-PATT-013M
100
AcDbLine
 10
5.392018885654859
 20
2.786329554279597
 30
0.0
 11
5.425157235654854
 21
2.786329554279597
 31
0.0
  0
LINE
  5
DC51
330
1F
100
AcDbEntity
  8
NETAFIM-L-DETL-PATT-013M
100
AcDbLine
 10
5.742018885654854
 20
2.786329554279597
 30
0.0
 11
5.775157235654855
 21
2.786329554279597
 31
0.0
  0
LINE
  5
DC52
330
1F
100
AcDbEntity
  8
NETAFIM-L-DETL-PATT-013M
100
AcDbLine
 10
4.342018885654855
 20
3.136329554279599
 30
0.0
 11
4.375157235654857
 21
3.136329554279599
 31
0.0
  0
LINE
  5
DC53
330
1F
100
AcDbEntity
  8
NETAFIM-L-DETL-PATT-013M
100
AcDbLine
 10
4.692018885654857
 20
3.136329554279599
 30
0.0
 11
4.725157235654858
 21
3.136329554279599
 31
0.0
  0
LINE
  5
DC54
330
1F
100
AcDbEntity
  8
NETAFIM-L-DETL-PATT-013M
100
AcDbLine
 10
5.392018885654859
 20
3.136329554279599
 30
0.0
 11
5.425157235654854
 21
3.136329554279599
 31
0.0
  0
LINE
  5
DC55
330
1F
100
AcDbEntity
  8
NETAFIM-L-DETL-PATT-013M
100
AcDbLine
 10
4.676939363485093
 20
3.151411567513425
 30
0.0
 11
4.692022759703899
 21
3.136328171294623
 31
0.0
  0
LINE
  5
DC56
330
1F
100
AcDbEntity
  8
NETAFIM-L-DETL-PATT-013M
100
AcDbLine
 10
5.018590268521325
 20
2.809760662477196
 30
0.0
 11
5.042022620523656
 21
2.786328310474861
 31
0.0
  0
LINE
  5
DC57
330
1F
100
AcDbEntity
  8
NETAFIM-L-DETL-PATT-013M
100
AcDbLine
 10
5.368590376828453
 20
2.809760662477196
 30
0.0
 11
5.392022728830792
 21
2.786328310474861
 31
0.0
  0
LINE
  5
DC58
330
1F
100
AcDbEntity
  8
NETAFIM-L-DETL-PATT-013M
100
AcDbLine
 10
5.371429858052461
 20
3.156921289560321
 30
0.0
 11
5.392022976318163
 21
3.136328171294623
 31
0.0
  0
LINE
  5
DC59
330
1F
100
AcDbEntity
  8
NETAFIM-L-DETL-PATT-013M
100
AcDbLine
 10
5.718590485135589
 20
2.809760662477194
 30
0.0
 11
5.74202283713792
 21
2.786328310474861
 31
0.0
  0
LINE
  5
DC5A
102
{ACAD_REACTORS
330
DF21
102
}
330
1F
100
AcDbEntity
  8
NETAFIM-L-DETL-PATT-013M
100
AcDbLine
 10
4.66859016021419
 20
2.809760662477196
 30
0.0
 11
4.692022512216521
 21
2.786328310474863
 31
0.0
  0
LINE
  5
DC5B
330
1F
100
AcDbEntity
  8
NETAFIM-L-DETL-PATT-013M
100
AcDbLine
 10
5.018590021033947
 20
2.459760801657435
 30
0.0
 11
5.019595858197913
 21
2.458754964493469
 31
0.0
  0
LINE
  5
DC5C
330
1F
100
AcDbEntity
  8
NETAFIM-L-DETL-PATT-013M
100
AcDbLine
 10
5.01858638565486
 20
2.842900404279597
 30
0.0
 11
5.01858638565486
 21
2.809762054279597
 31
0.0
  0
LINE
  5
DC5D
330
1F
100
AcDbEntity
  8
NETAFIM-L-DETL-PATT-013M
100
AcDbLine
 10
5.01858638565486
 20
2.492900404279597
 30
0.0
 11
5.01858638565486
 21
2.459762054279598
 31
0.0
  0
LINE
  5
DC5E
330
1F
100
AcDbEntity
  8
NETAFIM-L-DETL-PATT-013M
100
AcDbLine
 10
5.368586385654854
 20
2.842900404279597
 30
0.0
 11
5.368586385654854
 21
2.809762054279597
 31
0.0
  0
LINE
  5
DC5F
330
1F
100
AcDbEntity
  8
NETAFIM-L-DETL-PATT-013M
100
AcDbLine
 10
5.368586385654854
 20
2.492900404279597
 30
0.0
 11
5.368586385654854
 21
2.464355703640376
 31
0.0
  0
LINE
  5
DC60
330
1F
100
AcDbEntity
  8
NETAFIM-L-DETL-PATT-013M
100
AcDbLine
 10
5.718586385654855
 20
2.842900404279597
 30
0.0
 11
5.718586385654855
 21
2.809762054279597
 31
0.0
  0
LINE
  5
DC61
330
1F
100
AcDbEntity
  8
NETAFIM-L-DETL-PATT-013M
100
AcDbLine
 10
5.718586385654855
 20
2.492900404279597
 30
0.0
 11
5.718586385654855
 21
2.49123229774032
 31
0.0
  0
LINE
  5
DC62
330
1F
100
AcDbEntity
  8
NETAFIM-L-DETL-PATT-013M
100
AcDbLine
 10
4.668586385654858
 20
2.842900404279597
 30
0.0
 11
4.668586385654858
 21
2.809762054279597
 31
0.0
  0
LINE
  5
DC63
330
1F
100
AcDbEntity
  8
NETAFIM-L-DETL-PATT-013M
100
AcDbLine
 10
5.042017076311733
 20
2.866330420015075
 30
0.0
 11
5.018584724309402
 21
2.842898068012742
 31
0.0
  0
LINE
  5
DC64
330
1F
100
AcDbEntity
  8
NETAFIM-L-DETL-PATT-013M
100
AcDbLine
 10
5.392016937131497
 20
2.866330172527701
 30
0.0
 11
5.368584585129159
 21
2.84289782052537
 31
0.0
  0
LINE
  5
DC65
330
1F
100
AcDbEntity
  8
NETAFIM-L-DETL-PATT-013M
100
AcDbLine
 10
5.042017076311733
 20
2.516330311707942
 30
0.0
 11
5.018584724309402
 21
2.492897959705609
 31
0.0
  0
LINE
  5
DC66
330
1F
100
AcDbEntity
  8
NETAFIM-L-DETL-PATT-013M
100
AcDbLine
 10
5.742016797951254
 20
2.86632992504033
 30
0.0
 11
5.718584445948923
 21
2.842897573037995
 31
0.0
  0
LINE
  5
DC67
330
1F
100
AcDbEntity
  8
NETAFIM-L-DETL-PATT-013M
100
AcDbLine
 10
5.392016937131497
 20
2.516330064220569
 30
0.0
 11
5.368584585129159
 21
2.492897712218234
 31
0.0
  0
LINE
  5
DC68
330
1F
100
AcDbEntity
  8
NETAFIM-L-DETL-PATT-013M
100
AcDbLine
 10
5.742016797951254
 20
2.516329816733194
 30
0.0
 11
5.718584445948923
 21
2.492897464730863
 31
0.0
  0
LINE
  5
DC69
330
1F
100
AcDbEntity
  8
NETAFIM-L-DETL-PATT-013M
100
AcDbLine
 10
4.692017215491976
 20
2.86633066750245
 30
0.0
 11
4.668584863489645
 21
2.842898315500115
 31
0.0
  0
LINE
  5
DC6A
330
1F
100
AcDbEntity
  8
NETAFIM-L-DETL-PATT-013M
100
AcDbLine
 10
5.696755835654858
 20
2.811208604279596
 30
0.0
 11
5.658767885654857
 21
2.811208604279596
 31
0.0
  0
LINE
  5
DC6B
330
1F
100
AcDbEntity
  8
NETAFIM-L-DETL-PATT-013M
100
AcDbLine
 10
5.346755835654857
 20
2.811208604279596
 30
0.0
 11
5.308767885654855
 21
2.811208604279596
 31
0.0
  0
LINE
  5
DC6C
330
1F
100
AcDbEntity
  8
NETAFIM-L-DETL-PATT-013M
100
AcDbLine
 10
4.996755835654855
 20
2.811208604279596
 30
0.0
 11
4.958767885654861
 21
2.811208604279596
 31
0.0
  0
LINE
  5
DC6D
330
1F
100
AcDbEntity
  8
NETAFIM-L-DETL-PATT-013M
100
AcDbLine
 10
4.646755835654861
 20
2.811208604279596
 30
0.0
 11
4.608767885654859
 21
2.811208604279596
 31
0.0
  0
LINE
  5
DC6E
330
1F
100
AcDbEntity
  8
NETAFIM-L-DETL-PATT-013M
100
AcDbLine
 10
4.996755835654855
 20
2.461208604279598
 30
0.0
 11
4.986401207145117
 21
2.461208604279598
 31
0.0
  0
LINE
  5
DC6F
330
1F
100
AcDbEntity
  8
NETAFIM-L-DETL-PATT-013M
100
AcDbLine
 10
5.023618693647588
 20
2.78434823735093
 30
0.0
 11
4.996757156599212
 21
2.811209774399306
 31
0.0
  0
LINE
  5
DC70
330
1F
100
AcDbEntity
  8
NETAFIM-L-DETL-PATT-013M
100
AcDbLine
 10
4.673618585340452
 20
3.134348345658063
 30
0.0
 11
4.65524403629271
 21
3.152722894705808
 31
0.0
  0
LINE
  5
DC71
330
1F
100
AcDbEntity
  8
NETAFIM-L-DETL-PATT-013M
100
AcDbLine
 10
4.997584878754512
 20
2.460381943936877
 30
0.0
 11
4.996757156599212
 21
2.46120966609217
 31
0.0
  0
LINE
  5
DC72
330
1F
100
AcDbEntity
  8
NETAFIM-L-DETL-PATT-013M
100
AcDbLine
 10
4.673618585340452
 20
2.78434823735093
 30
0.0
 11
4.646757048292077
 21
2.811209774399306
 31
0.0
  0
LINE
  5
DC73
330
1F
100
AcDbEntity
  8
NETAFIM-L-DETL-PATT-013M
100
AcDbLine
 10
5.373618801954723
 20
2.78434823735093
 30
0.0
 11
5.346757264906347
 21
2.811209774399306
 31
0.0
  0
LINE
  5
DC74
330
1F
100
AcDbEntity
  8
NETAFIM-L-DETL-PATT-013M
100
AcDbLine
 10
5.723618910261851
 20
2.78434823735093
 30
0.0
 11
5.696757373213475
 21
2.811209774399306
 31
0.0
  0
LINE
  5
DC75
330
1F
100
AcDbEntity
  8
NETAFIM-L-DETL-PATT-013M
100
AcDbLine
 10
5.373618801954723
 20
3.134348345658063
 30
0.0
 11
5.347734737019248
 21
3.160232410593534
 31
0.0
  0
LINE
  5
DC76
330
1F
100
AcDbEntity
  8
NETAFIM-L-DETL-PATT-013M
100
AcDbLine
 10
5.023617285654854
 20
2.746359204279596
 30
0.0
 11
5.023617285654854
 21
2.784347154279598
 31
0.0
  0
LINE
  5
DC77
330
1F
100
AcDbEntity
  8
NETAFIM-L-DETL-PATT-013M
100
AcDbLine
 10
5.023617285654854
 20
3.096359204279599
 30
0.0
 11
5.023617285654854
 21
3.128260918636422
 31
0.0
  0
LINE
  5
DC78
330
1F
100
AcDbEntity
  8
NETAFIM-L-DETL-PATT-013M
100
AcDbLine
 10
4.673617285654859
 20
2.746359204279596
 30
0.0
 11
4.673617285654859
 21
2.784347154279598
 31
0.0
  0
LINE
  5
DC79
330
1F
100
AcDbEntity
  8
NETAFIM-L-DETL-PATT-013M
100
AcDbLine
 10
4.673617285654859
 20
3.096359204279599
 30
0.0
 11
4.673617285654859
 21
3.134347154279597
 31
0.0
  0
LINE
  5
DC7A
330
1F
100
AcDbEntity
  8
NETAFIM-L-DETL-PATT-013M
100
AcDbLine
 10
5.373617285654855
 20
2.746359204279596
 30
0.0
 11
5.373617285654855
 21
2.784347154279598
 31
0.0
  0
LINE
  5
DC7B
330
1F
100
AcDbEntity
  8
NETAFIM-L-DETL-PATT-013M
100
AcDbLine
 10
5.373617285654855
 20
3.096359204279599
 30
0.0
 11
5.373617285654855
 21
3.134347154279597
 31
0.0
  0
LINE
  5
DC7C
330
1F
100
AcDbEntity
  8
NETAFIM-L-DETL-PATT-013M
100
AcDbLine
 10
5.723617285654857
 20
2.746359204279596
 30
0.0
 11
5.723617285654857
 21
2.784347154279598
 31
0.0
  0
LINE
  5
DC7D
330
1F
100
AcDbEntity
  8
NETAFIM-L-DETL-PATT-013M
100
AcDbLine
 10
5.723617285654857
 20
3.096359204279599
 30
0.0
 11
5.723617285654857
 21
3.114909928143196
 31
0.0
  0
LINE
  5
DC7E
330
1F
100
AcDbEntity
  8
NETAFIM-L-DETL-PATT-013M
100
AcDbLine
 10
4.996757243647589
 20
2.71949883735093
 30
0.0
 11
5.023618780695965
 21
2.746360374399306
 31
0.0
  0
LINE
  5
DC7F
330
1F
100
AcDbEntity
  8
NETAFIM-L-DETL-PATT-013M
100
AcDbLine
 10
5.346757351954725
 20
3.069498945658063
 30
0.0
 11
5.3736188890031
 21
3.096360482706439
 31
0.0
  0
LINE
  5
DC80
330
1F
100
AcDbEntity
  8
NETAFIM-L-DETL-PATT-013M
100
AcDbLine
 10
4.646757135340454
 20
2.71949883735093
 30
0.0
 11
4.67361867238883
 21
2.746360374399306
 31
0.0
  0
LINE
  5
DC81
330
1F
100
AcDbEntity
  8
NETAFIM-L-DETL-PATT-013M
100
AcDbLine
 10
4.996757243647589
 20
3.069498945658063
 30
0.0
 11
5.023618780695965
 21
3.096360482706439
 31
0.0
  0
LINE
  5
DC82
330
1F
100
AcDbEntity
  8
NETAFIM-L-DETL-PATT-013M
100
AcDbLine
 10
4.646757135340454
 20
3.069498945658063
 30
0.0
 11
4.67361867238883
 21
3.096360482706439
 31
0.0
  0
LINE
  5
DC83
330
1F
100
AcDbEntity
  8
NETAFIM-L-DETL-PATT-013M
100
AcDbLine
 10
5.346757351954725
 20
2.71949883735093
 30
0.0
 11
5.3736188890031
 21
2.746360374399306
 31
0.0
  0
LINE
  5
DC84
330
1F
100
AcDbEntity
  8
NETAFIM-L-DETL-PATT-013M
100
AcDbLine
 10
5.696757460261853
 20
3.069498945658063
 30
0.0
 11
5.723618997310229
 21
3.096360482706439
 31
0.0
  0
LINE
  5
DC85
330
1F
100
AcDbEntity
  8
NETAFIM-L-DETL-PATT-013M
100
AcDbLine
 10
5.696757460261853
 20
2.71949883735093
 30
0.0
 11
5.723618997310229
 21
2.746360374399306
 31
0.0
  0
LINE
  5
DC86
330
1F
100
AcDbEntity
  8
NETAFIM-L-DETL-PATT-013M
100
AcDbLine
 10
4.608767885654859
 20
2.719497754279598
 30
0.0
 11
4.646755835654854
 21
2.719497754279598
 31
0.0
  0
LINE
  5
DC87
330
1F
100
AcDbEntity
  8
NETAFIM-L-DETL-PATT-013M
100
AcDbLine
 10
4.958767885654854
 20
2.719497754279598
 30
0.0
 11
4.996755835654855
 21
2.719497754279598
 31
0.0
  0
LINE
  5
DC88
330
1F
100
AcDbEntity
  8
NETAFIM-L-DETL-PATT-013M
100
AcDbLine
 10
5.308767885654855
 20
2.719497754279598
 30
0.0
 11
5.346755835654857
 21
2.719497754279598
 31
0.0
  0
LINE
  5
DC89
330
1F
100
AcDbEntity
  8
NETAFIM-L-DETL-PATT-013M
100
AcDbLine
 10
5.658767885654857
 20
2.719497754279598
 30
0.0
 11
5.696755835654858
 21
2.719497754279598
 31
0.0
  0
LINE
  5
DC8A
330
1F
100
AcDbEntity
  8
NETAFIM-L-DETL-PATT-013M
100
AcDbLine
 10
4.608767885654859
 20
3.069497754279597
 30
0.0
 11
4.646755835654854
 21
3.069497754279597
 31
0.0
  0
LINE
  5
DC8B
330
1F
100
AcDbEntity
  8
NETAFIM-L-DETL-PATT-013M
100
AcDbLine
 10
4.958767885654854
 20
3.069497754279597
 30
0.0
 11
4.996755835654855
 21
3.069497754279597
 31
0.0
  0
LINE
  5
DC8C
330
1F
100
AcDbEntity
  8
NETAFIM-L-DETL-PATT-013M
100
AcDbLine
 10
5.308767885654855
 20
3.069497754279597
 30
0.0
 11
5.346755835654857
 21
3.069497754279597
 31
0.0
  0
LINE
  5
DC8D
330
1F
100
AcDbEntity
  8
NETAFIM-L-DETL-PATT-013M
100
AcDbLine
 10
5.658767885654857
 20
3.069497754279597
 30
0.0
 11
5.696755835654858
 21
3.069497754279597
 31
0.0
  0
LINE
  5
DC8E
330
1F
100
AcDbEntity
  8
NETAFIM-L-DETL-PATT-013M
100
AcDbLine
 10
4.581907735340454
 20
3.096360395658065
 30
0.0
 11
4.60876927238883
 21
3.069498858609689
 31
0.0
  0
LINE
  5
DC8F
330
1F
100
AcDbEntity
  8
NETAFIM-L-DETL-PATT-013M
100
AcDbLine
 10
4.931907843647589
 20
2.746360287350928
 30
0.0
 11
4.958769380695965
 21
2.719498750302554
 31
0.0
  0
LINE
  5
DC90
330
1F
100
AcDbEntity
  8
NETAFIM-L-DETL-PATT-013M
100
AcDbLine
 10
4.931907843647589
 20
3.096360395658065
 30
0.0
 11
4.958769380695965
 21
3.069498858609689
 31
0.0
  0
LINE
  5
DC91
330
1F
100
AcDbEntity
  8
NETAFIM-L-DETL-PATT-013M
100
AcDbLine
 10
5.281907951954725
 20
2.74636028735093
 30
0.0
 11
5.3087694890031
 21
2.719498750302554
 31
0.0
  0
LINE
  5
DC92
330
1F
100
AcDbEntity
  8
NETAFIM-L-DETL-PATT-013M
100
AcDbLine
 10
5.281907951954725
 20
3.096360395658065
 30
0.0
 11
5.3087694890031
 21
3.069498858609689
 31
0.0
  0
LINE
  5
DC93
330
1F
100
AcDbEntity
  8
NETAFIM-L-DETL-PATT-013M
100
AcDbLine
 10
5.631908060261853
 20
2.746360287350932
 30
0.0
 11
5.658769597310229
 21
2.719498750302556
 31
0.0
  0
LINE
  5
DC94
330
1F
100
AcDbEntity
  8
NETAFIM-L-DETL-PATT-013M
100
AcDbLine
 10
5.631908060261853
 20
3.096360395658065
 30
0.0
 11
5.658769597310229
 21
3.069498858609689
 31
0.0
  0
LINE
  5
DC95
330
1F
100
AcDbEntity
  8
NETAFIM-L-DETL-PATT-013M
100
AcDbLine
 10
4.581907735340454
 20
2.746360287350928
 30
0.0
 11
4.60876927238883
 21
2.719498750302553
 31
0.0
  0
LINE
  5
DC96
330
1F
100
AcDbEntity
  8
NETAFIM-L-DETL-PATT-013M
100
AcDbLine
 10
4.931906435654855
 20
3.134347154279597
 30
0.0
 11
4.931906435654855
 21
3.096359204279599
 31
0.0
  0
LINE
  5
DC97
330
1F
100
AcDbEntity
  8
NETAFIM-L-DETL-PATT-013M
100
AcDbLine
 10
4.931906435654855
 20
2.784347154279598
 30
0.0
 11
4.931906435654855
 21
2.746359204279596
 31
0.0
  0
LINE
  5
DC98
330
1F
100
AcDbEntity
  8
NETAFIM-L-DETL-PATT-013M
100
AcDbLine
 10
5.281906435654857
 20
3.134347154279597
 30
0.0
 11
5.281906435654857
 21
3.096359204279599
 31
0.0
  0
LINE
  5
DC99
330
1F
100
AcDbEntity
  8
NETAFIM-L-DETL-PATT-013M
100
AcDbLine
 10
5.281906435654857
 20
2.784347154279598
 30
0.0
 11
5.281906435654857
 21
2.746359204279596
 31
0.0
  0
LINE
  5
DC9A
330
1F
100
AcDbEntity
  8
NETAFIM-L-DETL-PATT-013M
100
AcDbLine
 10
5.631906435654858
 20
3.111818589354689
 30
0.0
 11
5.631906435654858
 21
3.096359204279599
 31
0.0
  0
LINE
  5
DC9B
330
1F
100
AcDbEntity
  8
NETAFIM-L-DETL-PATT-013M
100
AcDbLine
 10
5.631906435654858
 20
2.784347154279598
 30
0.0
 11
5.631906435654858
 21
2.746359204279596
 31
0.0
  0
LINE
  5
DC9C
330
1F
100
AcDbEntity
  8
NETAFIM-L-DETL-PATT-013M
100
AcDbLine
 10
4.581906435654861
 20
3.134347154279597
 30
0.0
 11
4.581906435654861
 21
3.096359204279599
 31
0.0
  0
LINE
  5
DC9D
330
1F
100
AcDbEntity
  8
NETAFIM-L-DETL-PATT-013M
100
AcDbLine
 10
4.581906435654861
 20
2.784347154279598
 30
0.0
 11
4.581906435654861
 21
2.746359204279596
 31
0.0
  0
LINE
  5
DC9E
330
1F
100
AcDbEntity
  8
NETAFIM-L-DETL-PATT-013M
100
AcDbLine
 10
5.301329882161081
 20
3.153770275864422
 30
0.0
 11
5.281907864906347
 21
3.134348258609689
 31
0.0
  0
LINE
  5
DC9F
330
1F
100
AcDbEntity
  8
NETAFIM-L-DETL-PATT-013M
100
AcDbLine
 10
4.958769293647588
 20
2.811209687350928
 30
0.0
 11
4.931907756599212
 21
2.784348150302554
 31
0.0
  0
LINE
  5
DCA0
330
1F
100
AcDbEntity
  8
NETAFIM-L-DETL-PATT-013M
100
AcDbLine
 10
5.308769401954723
 20
2.811209687350928
 30
0.0
 11
5.281907864906347
 21
2.784348150302554
 31
0.0
  0
LINE
  5
DCA1
330
1F
100
AcDbEntity
  8
NETAFIM-L-DETL-PATT-013M
100
AcDbLine
 10
5.658769510261858
 20
2.81120968735093
 30
0.0
 11
5.631907973213483
 21
2.784348150302556
 31
0.0
  0
LINE
  5
DCA2
330
1F
100
AcDbEntity
  8
NETAFIM-L-DETL-PATT-013M
100
AcDbLine
 10
4.931942336762485
 20
3.134382838772962
 30
0.0
 11
4.931907756599212
 21
3.134348258609689
 31
0.0
  0
LINE
  5
DCA3
330
1F
100
AcDbEntity
  8
NETAFIM-L-DETL-PATT-013M
100
AcDbLine
 10
4.608769185340452
 20
2.81120968735093
 30
0.0
 11
4.581907648292077
 21
2.784348150302554
 31
0.0
  0
LINE
  5
DCA4
330
1F
100
AcDbEntity
  8
NETAFIM-L-DETL-PATT-013M
100
AcDbLine
 10
4.603387762969287
 20
3.155828373286892
 30
0.0
 11
4.581907648292084
 21
3.134348258609689
 31
0.0
  0
LINE
  5
DCA5
330
1F
100
AcDbEntity
  8
NETAFIM-L-DETL-PATT-013M
100
AcDbLine
 10
5.53741938565486
 20
2.786004404279599
 30
0.0
 11
5.512363585654856
 21
2.786004404279599
 31
0.0
  0
LINE
  5
DCA6
330
1F
100
AcDbEntity
  8
NETAFIM-L-DETL-PATT-013M
100
AcDbLine
 10
5.187419385654859
 20
2.786004404279599
 30
0.0
 11
5.162363585654862
 21
2.786004404279599
 31
0.0
  0
LINE
  5
DCA7
330
1F
100
AcDbEntity
  8
NETAFIM-L-DETL-PATT-013M
100
AcDbLine
 10
4.837419385654857
 20
2.786004404279599
 30
0.0
 11
4.81236358565486
 21
2.786004404279599
 31
0.0
  0
LINE
  5
DCA8
330
1F
100
AcDbEntity
  8
NETAFIM-L-DETL-PATT-013M
100
AcDbLine
 10
4.487419385654863
 20
2.786004404279599
 30
0.0
 11
4.462363585654859
 21
2.786004404279599
 31
0.0
  0
LINE
  5
DCA9
330
1F
100
AcDbEntity
  8
NETAFIM-L-DETL-PATT-013M
100
AcDbLine
 10
4.837419385654857
 20
3.136004404279598
 30
0.0
 11
4.81236358565486
 21
3.136004404279598
 31
0.0
  0
LINE
  5
DCAA
330
1F
100
AcDbEntity
  8
NETAFIM-L-DETL-PATT-013M
100
AcDbLine
 10
4.487419385654856
 20
3.136004404279598
 30
0.0
 11
4.462363585654859
 21
3.136004404279598
 31
0.0
  0
LINE
  5
DCAB
330
1F
100
AcDbEntity
  8
NETAFIM-L-DETL-PATT-013M
100
AcDbLine
 10
5.187419385654859
 20
3.136004404279598
 30
0.0
 11
5.173752428752582
 21
3.136004404279598
 31
0.0
  0
LINE
  5
DCAC
330
1F
100
AcDbEntity
  8
NETAFIM-L-DETL-PATT-013M
100
AcDbLine
 10
5.205140726828457
 20
2.768285662477198
 30
0.0
 11
5.187423600740405
 21
2.786002788565251
 31
0.0
  0
LINE
  5
DCAD
330
1F
100
AcDbEntity
  8
NETAFIM-L-DETL-PATT-013M
100
AcDbLine
 10
4.855140866008699
 20
3.118285523296956
 30
0.0
 11
4.837423739920641
 21
3.136002649385011
 31
0.0
  0
LINE
  5
DCAE
330
1F
100
AcDbEntity
  8
NETAFIM-L-DETL-PATT-013M
100
AcDbLine
 10
4.855140618521321
 20
2.768285662477196
 30
0.0
 11
4.83742349243327
 21
2.786002788565249
 31
0.0
  0
LINE
  5
DCAF
330
1F
100
AcDbEntity
  8
NETAFIM-L-DETL-PATT-013M
100
AcDbLine
 10
4.505140757701564
 20
3.118285523296956
 30
0.0
 11
4.487423631613513
 21
3.136002649385011
 31
0.0
  0
LINE
  5
DCB0
330
1F
100
AcDbEntity
  8
NETAFIM-L-DETL-PATT-013M
100
AcDbLine
 10
4.505140510214193
 20
2.768285662477196
 30
0.0
 11
4.487423384126135
 21
2.786002788565249
 31
0.0
  0
LINE
  5
DCB1
330
1F
100
AcDbEntity
  8
NETAFIM-L-DETL-PATT-013M
100
AcDbLine
 10
5.555140835135592
 20
2.768285662477196
 30
0.0
 11
5.537423709047534
 21
2.786002788565249
 31
0.0
  0
LINE
  5
DCB2
330
1F
100
AcDbEntity
  8
NETAFIM-L-DETL-PATT-013M
100
AcDbLine
 10
5.205140974315828
 20
3.118285523296956
 30
0.0
 11
5.187423848227776
 21
3.136002649385011
 31
0.0
  0
LINE
  5
DCB3
330
1F
100
AcDbEntity
  8
NETAFIM-L-DETL-PATT-013M
100
AcDbLine
 10
5.555141082622963
 20
3.118285523296956
 30
0.0
 11
5.547001203155222
 21
3.1264254027647
 31
0.0
  0
LINE
  5
DCB4
330
1F
100
AcDbEntity
  8
NETAFIM-L-DETL-PATT-013M
100
AcDbLine
 10
4.855136735654856
 20
2.743231254279598
 30
0.0
 11
4.855136735654856
 21
2.768287054279597
 31
0.0
  0
LINE
  5
DCB5
330
1F
100
AcDbEntity
  8
NETAFIM-L-DETL-PATT-013M
100
AcDbLine
 10
4.855136735654856
 20
3.093231254279599
 30
0.0
 11
4.855136735654856
 21
3.118287054279599
 31
0.0
  0
LINE
  5
DCB6
330
1F
100
AcDbEntity
  8
NETAFIM-L-DETL-PATT-013M
100
AcDbLine
 10
4.505136735654861
 20
2.743231254279598
 30
0.0
 11
4.505136735654861
 21
2.768287054279597
 31
0.0
  0
LINE
  5
DCB7
330
1F
100
AcDbEntity
  8
NETAFIM-L-DETL-PATT-013M
100
AcDbLine
 10
4.505136735654861
 20
3.093231254279599
 30
0.0
 11
4.505136735654861
 21
3.118287054279599
 31
0.0
  0
LINE
  5
DCB8
330
1F
100
AcDbEntity
  8
NETAFIM-L-DETL-PATT-013M
100
AcDbLine
 10
5.205136735654857
 20
2.743231254279598
 30
0.0
 11
5.205136735654857
 21
2.768287054279597
 31
0.0
  0
LINE
  5
DCB9
330
1F
100
AcDbEntity
  8
NETAFIM-L-DETL-PATT-013M
100
AcDbLine
 10
5.205136735654857
 20
3.093231254279599
 30
0.0
 11
5.205136735654857
 21
3.118287054279599
 31
0.0
  0
LINE
  5
DCBA
330
1F
100
AcDbEntity
  8
NETAFIM-L-DETL-PATT-013M
100
AcDbLine
 10
5.555136735654858
 20
2.743231254279598
 30
0.0
 11
5.555136735654858
 21
2.768287054279597
 31
0.0
  0
LINE
  5
DCBB
330
1F
100
AcDbEntity
  8
NETAFIM-L-DETL-PATT-013M
100
AcDbLine
 10
5.555136735654858
 20
3.093231254279599
 30
0.0
 11
5.555136735654858
 21
3.118287054279599
 31
0.0
  0
LINE
  5
DCBC
330
1F
100
AcDbEntity
  8
NETAFIM-L-DETL-PATT-013M
100
AcDbLine
 10
4.837417576311739
 20
2.725512120015076
 30
0.0
 11
4.855134702399791
 21
2.743229246103131
 31
0.0
  0
LINE
  5
DCBD
330
1F
100
AcDbEntity
  8
NETAFIM-L-DETL-PATT-013M
100
AcDbLine
 10
5.187417437131497
 20
3.075511980834837
 30
0.0
 11
5.205134563219548
 21
3.093229106922889
 31
0.0
  0
LINE
  5
DCBE
330
1F
100
AcDbEntity
  8
NETAFIM-L-DETL-PATT-013M
100
AcDbLine
 10
4.487417715491975
 20
2.72551236750245
 30
0.0
 11
4.505134841580034
 21
2.743229493590503
 31
0.0
  0
LINE
  5
DCBF
330
1F
100
AcDbEntity
  8
NETAFIM-L-DETL-PATT-013M
100
AcDbLine
 10
4.837417576311739
 20
3.075512228322208
 30
0.0
 11
4.855134702399791
 21
3.093229354410263
 31
0.0
  0
LINE
  5
DCC0
330
1F
100
AcDbEntity
  8
NETAFIM-L-DETL-PATT-013M
100
AcDbLine
 10
4.487417715491975
 20
3.075512475809583
 30
0.0
 11
4.505134841580026
 21
3.093229601897638
 31
0.0
  0
LINE
  5
DCC1
330
1F
100
AcDbEntity
  8
NETAFIM-L-DETL-PATT-013M
100
AcDbLine
 10
5.187417437131497
 20
2.725511872527703
 30
0.0
 11
5.205134563219548
 21
2.743228998615756
 31
0.0
  0
LINE
  5
DCC2
330
1F
100
AcDbEntity
  8
NETAFIM-L-DETL-PATT-013M
100
AcDbLine
 10
5.537417297951254
 20
3.075511733347463
 30
0.0
 11
5.555134424039312
 21
3.093228859435518
 31
0.0
  0
LINE
  5
DCC3
330
1F
100
AcDbEntity
  8
NETAFIM-L-DETL-PATT-013M
100
AcDbLine
 10
5.537417297951254
 20
2.72551162504033
 30
0.0
 11
5.555134424039312
 21
2.743228751128385
 31
0.0
  0
LINE
  5
DCC4
330
1F
100
AcDbEntity
  8
NETAFIM-L-DETL-PATT-013M
100
AcDbLine
 10
4.462363585654859
 20
2.725514254279597
 30
0.0
 11
4.487419385654856
 21
2.725514254279597
 31
0.0
  0
LINE
  5
DCC5
330
1F
100
AcDbEntity
  8
NETAFIM-L-DETL-PATT-013M
100
AcDbLine
 10
4.81236358565486
 20
2.725514254279597
 30
0.0
 11
4.837419385654857
 21
2.725514254279597
 31
0.0
  0
LINE
  5
DCC6
330
1F
100
AcDbEntity
  8
NETAFIM-L-DETL-PATT-013M
100
AcDbLine
 10
5.162363585654855
 20
2.725514254279597
 30
0.0
 11
5.187419385654859
 21
2.725514254279597
 31
0.0
  0
LINE
  5
DCC7
330
1F
100
AcDbEntity
  8
NETAFIM-L-DETL-PATT-013M
100
AcDbLine
 10
5.512363585654856
 20
2.725514254279597
 30
0.0
 11
5.53741938565486
 21
2.725514254279597
 31
0.0
  0
LINE
  5
DCC8
330
1F
100
AcDbEntity
  8
NETAFIM-L-DETL-PATT-013M
100
AcDbLine
 10
4.462363585654859
 20
3.075514254279598
 30
0.0
 11
4.487419385654856
 21
3.075514254279598
 31
0.0
  0
LINE
  5
DCC9
330
1F
100
AcDbEntity
  8
NETAFIM-L-DETL-PATT-013M
100
AcDbLine
 10
4.81236358565486
 20
3.075514254279598
 30
0.0
 11
4.837419385654857
 21
3.075514254279598
 31
0.0
  0
LINE
  5
DCCA
330
1F
100
AcDbEntity
  8
NETAFIM-L-DETL-PATT-013M
100
AcDbLine
 10
5.162363585654855
 20
3.075514254279598
 30
0.0
 11
5.187419385654859
 21
3.075514254279598
 31
0.0
  0
LINE
  5
DCCB
330
1F
100
AcDbEntity
  8
NETAFIM-L-DETL-PATT-013M
100
AcDbLine
 10
5.512363585654856
 20
3.075514254279598
 30
0.0
 11
5.53741938565486
 21
3.075514254279598
 31
0.0
  0
LINE
  5
DCCC
330
1F
100
AcDbEntity
  8
NETAFIM-L-DETL-PATT-013M
100
AcDbLine
 10
4.794650716008693
 20
3.093229723296955
 30
0.0
 11
4.812367842096751
 21
3.075512597208904
 31
0.0
  0
LINE
  5
DCCD
330
1F
100
AcDbEntity
  8
NETAFIM-L-DETL-PATT-013M
100
AcDbLine
 10
5.144650576828457
 20
2.743229862477197
 30
0.0
 11
5.162367702916508
 21
2.725512736389142
 31
0.0
  0
LINE
  5
DCCE
330
1F
100
AcDbEntity
  8
NETAFIM-L-DETL-PATT-013M
100
AcDbLine
 10
5.144650824315828
 20
3.093229723296955
 30
0.0
 11
5.162367950403886
 21
3.075512597208904
 31
0.0
  0
LINE
  5
DCCF
330
1F
100
AcDbEntity
  8
NETAFIM-L-DETL-PATT-013M
100
AcDbLine
 10
5.494650685135592
 20
2.743229862477197
 30
0.0
 11
5.512367811223644
 21
2.725512736389142
 31
0.0
  0
LINE
  5
DCD0
330
1F
100
AcDbEntity
  8
NETAFIM-L-DETL-PATT-013M
100
AcDbLine
 10
5.494650932622963
 20
3.093229723296955
 30
0.0
 11
5.512368058711015
 21
3.075512597208904
 31
0.0
  0
LINE
  5
DCD1
330
1F
100
AcDbEntity
  8
NETAFIM-L-DETL-PATT-013M
100
AcDbLine
 10
4.444650607701564
 20
3.093229723296955
 30
0.0
 11
4.462367733789616
 21
3.075512597208904
 31
0.0
  0
LINE
  5
DCD2
330
1F
100
AcDbEntity
  8
NETAFIM-L-DETL-PATT-013M
100
AcDbLine
 10
4.794650468521322
 20
2.743229862477197
 30
0.0
 11
4.812367594609373
 21
2.725512736389142
 31
0.0
  0
LINE
  5
DCD3
330
1F
100
AcDbEntity
  8
NETAFIM-L-DETL-PATT-013M
100
AcDbLine
 10
4.444650360214186
 20
2.743229862477195
 30
0.0
 11
4.462367486302245
 21
2.725512736389142
 31
0.0
  0
LINE
  5
DCD4
330
1F
100
AcDbEntity
  8
NETAFIM-L-DETL-PATT-013M
100
AcDbLine
 10
5.144646585654857
 20
3.118287054279599
 30
0.0
 11
5.144646585654857
 21
3.093231254279599
 31
0.0
  0
LINE
  5
DCD5
330
1F
100
AcDbEntity
  8
NETAFIM-L-DETL-PATT-013M
100
AcDbLine
 10
5.144646585654857
 20
2.768287054279597
 30
0.0
 11
5.144646585654857
 21
2.743231254279598
 31
0.0
  0
LINE
  5
DCD6
330
1F
100
AcDbEntity
  8
NETAFIM-L-DETL-PATT-013M
100
AcDbLine
 10
5.494646585654859
 20
3.118287054279599
 30
0.0
 11
5.494646585654859
 21
3.093231254279599
 31
0.0
  0
LINE
  5
DCD7
330
1F
100
AcDbEntity
  8
NETAFIM-L-DETL-PATT-013M
100
AcDbLine
 10
5.494646585654859
 20
2.768287054279597
 30
0.0
 11
5.494646585654859
 21
2.743231254279598
 31
0.0
  0
LINE
  5
DCD8
330
1F
100
AcDbEntity
  8
NETAFIM-L-DETL-PATT-013M
100
AcDbLine
 10
4.794646585654856
 20
3.118287054279599
 30
0.0
 11
4.794646585654856
 21
3.093231254279599
 31
0.0
  0
LINE
  5
DCD9
330
1F
100
AcDbEntity
  8
NETAFIM-L-DETL-PATT-013M
100
AcDbLine
 10
4.794646585654856
 20
2.768287054279597
 30
0.0
 11
4.794646585654856
 21
2.743231254279598
 31
0.0
  0
LINE
  5
DCDA
330
1F
100
AcDbEntity
  8
NETAFIM-L-DETL-PATT-013M
100
AcDbLine
 10
4.444646585654854
 20
3.118287054279599
 30
0.0
 11
4.444646585654854
 21
3.093231254279599
 31
0.0
  0
LINE
  5
DCDB
330
1F
100
AcDbEntity
  8
NETAFIM-L-DETL-PATT-013M
100
AcDbLine
 10
4.444646585654854
 20
2.768287054279597
 30
0.0
 11
4.444646585654854
 21
2.743231254279598
 31
0.0
  0
LINE
  5
DCDC
330
1F
100
AcDbEntity
  8
NETAFIM-L-DETL-PATT-013M
100
AcDbLine
 10
5.160521418663275
 20
3.134161912366616
 30
0.0
 11
5.144644511043441
 21
3.118285004746782
 31
0.0
  0
LINE
  5
DCDD
330
1F
100
AcDbEntity
  8
NETAFIM-L-DETL-PATT-013M
100
AcDbLine
 10
4.812361776311735
 20
2.786002270015075
 30
0.0
 11
4.794644650223684
 21
2.768285143927021
 31
0.0
  0
LINE
  5
DCDE
330
1F
100
AcDbEntity
  8
NETAFIM-L-DETL-PATT-013M
100
AcDbLine
 10
5.50932857009089
 20
3.132968955487099
 30
0.0
 11
5.494644371863198
 21
3.118284757259408
 31
0.0
  0
LINE
  5
DCDF
330
1F
100
AcDbEntity
  8
NETAFIM-L-DETL-PATT-013M
100
AcDbLine
 10
5.162361637131493
 20
2.786002022527701
 30
0.0
 11
5.144644511043441
 21
2.768284896439648
 31
0.0
  0
LINE
  5
DCE0
330
1F
100
AcDbEntity
  8
NETAFIM-L-DETL-PATT-013M
100
AcDbLine
 10
5.512361497951257
 20
2.78600177504033
 30
0.0
 11
5.494644371863198
 21
2.768284648952275
 31
0.0
  0
LINE
  5
DCE1
330
1F
100
AcDbEntity
  8
NETAFIM-L-DETL-PATT-013M
100
AcDbLine
 10
4.812361776311735
 20
3.136002378322208
 30
0.0
 11
4.794644650223684
 21
3.118285252234157
 31
0.0
  0
LINE
  5
DCE2
330
1F
100
AcDbEntity
  8
NETAFIM-L-DETL-PATT-013M
100
AcDbLine
 10
4.462361915491978
 20
2.78600251750245
 30
0.0
 11
4.44464478940392
 21
2.768285391414395
 31
0.0
  0
LINE
  5
DCE3
330
1F
100
AcDbEntity
  8
NETAFIM-L-DETL-PATT-013M
100
AcDbLine
 10
4.462361915491978
 20
3.136002625809583
 30
0.0
 11
4.44464478940392
 21
3.118285499721528
 31
0.0
  0
LINE
  5
DCE4
330
1F
100
AcDbEntity
  8
NETAFIM-L-DETL-PATT-013M
100
AcDbLine
 10
4.955644485654861
 20
2.479240604279596
 30
0.0
 11
4.955644485654861
 21
2.529358504279596
 31
0.0
  0
LINE
  5
DCE5
330
1F
100
AcDbEntity
  8
NETAFIM-L-DETL-PATT-013M
100
AcDbLine
 10
4.955644485654861
 20
2.829240604279598
 30
0.0
 11
4.955644485654861
 21
2.879358504279598
 31
0.0
  0
LINE
  5
DCE6
330
1F
100
AcDbEntity
  8
NETAFIM-L-DETL-PATT-013M
100
AcDbLine
 10
4.60564448565486
 20
2.829240604279598
 30
0.0
 11
4.60564448565486
 21
2.879358504279598
 31
0.0
  0
LINE
  5
DCE7
330
1F
100
AcDbEntity
  8
NETAFIM-L-DETL-PATT-013M
100
AcDbLine
 10
5.305644485654855
 20
2.479240604279596
 30
0.0
 11
5.305644485654855
 21
2.529358504279596
 31
0.0
  0
LINE
  5
DCE8
330
1F
100
AcDbEntity
  8
NETAFIM-L-DETL-PATT-013M
100
AcDbLine
 10
5.305644485654855
 20
2.829240604279598
 30
0.0
 11
5.305644485654855
 21
2.879358504279598
 31
0.0
  0
LINE
  5
DCE9
330
1F
100
AcDbEntity
  8
NETAFIM-L-DETL-PATT-013M
100
AcDbLine
 10
5.655644485654857
 20
2.485878860817165
 30
0.0
 11
5.655644485654857
 21
2.529358504279596
 31
0.0
  0
LINE
  5
DCEA
330
1F
100
AcDbEntity
  8
NETAFIM-L-DETL-PATT-013M
100
AcDbLine
 10
5.655644485654857
 20
2.829240604279598
 30
0.0
 11
5.655644485654857
 21
2.879358504279598
 31
0.0
  0
LINE
  5
DCEB
330
1F
100
AcDbEntity
  8
NETAFIM-L-DETL-PATT-013M
100
AcDbLine
 10
4.920207343647593
 20
2.793803137350931
 30
0.0
 11
4.955646050596417
 21
2.829241844299759
 31
0.0
  0
LINE
  5
DCEC
330
1F
100
AcDbEntity
  8
NETAFIM-L-DETL-PATT-013M
100
AcDbLine
 10
5.270207451954721
 20
3.143803245658064
 30
0.0
 11
5.276751854843599
 21
3.150347648546942
 31
0.0
  0
LINE
  5
DCED
330
1F
100
AcDbEntity
  8
NETAFIM-L-DETL-PATT-013M
100
AcDbLine
 10
4.570207235340458
 20
2.793803137350931
 30
0.0
 11
4.605645942289289
 21
2.829241844299759
 31
0.0
  0
LINE
  5
DCEE
330
1F
100
AcDbEntity
  8
NETAFIM-L-DETL-PATT-013M
100
AcDbLine
 10
4.570207235340458
 20
3.143803245658064
 30
0.0
 11
4.583427696802321
 21
3.157023707119927
 31
0.0
  0
LINE
  5
DCEF
330
1F
100
AcDbEntity
  8
NETAFIM-L-DETL-PATT-013M
100
AcDbLine
 10
4.940970972870236
 20
2.464566658266446
 30
0.0
 11
4.955646050596417
 21
2.479241735992627
 31
0.0
  0
LINE
  5
DCF0
330
1F
100
AcDbEntity
  8
NETAFIM-L-DETL-PATT-013M
100
AcDbLine
 10
5.270207451954721
 20
2.793803137350931
 30
0.0
 11
5.305646158903552
 21
2.829241844299759
 31
0.0
  0
LINE
  5
DCF1
330
1F
100
AcDbEntity
  8
NETAFIM-L-DETL-PATT-013M
100
AcDbLine
 10
5.287038049281708
 20
2.460633626370781
 30
0.0
 11
5.305646158903552
 21
2.479241735992627
 31
0.0
  0
LINE
  5
DCF2
330
1F
100
AcDbEntity
  8
NETAFIM-L-DETL-PATT-013M
100
AcDbLine
 10
5.620207560261857
 20
2.793803137350931
 30
0.0
 11
5.655646267210688
 21
2.829241844299759
 31
0.0
  0
LINE
  5
DCF3
330
1F
100
AcDbEntity
  8
NETAFIM-L-DETL-PATT-013M
100
AcDbLine
 10
4.520088035654854
 20
2.793802054279598
 30
0.0
 11
4.570205935654858
 21
2.793802054279598
 31
0.0
  0
LINE
  5
DCF4
330
1F
100
AcDbEntity
  8
NETAFIM-L-DETL-PATT-013M
100
AcDbLine
 10
4.870088035654855
 20
2.793802054279598
 30
0.0
 11
4.920205935654859
 21
2.793802054279598
 31
0.0
  0
LINE
  5
DCF5
330
1F
100
AcDbEntity
  8
NETAFIM-L-DETL-PATT-013M
100
AcDbLine
 10
5.220088035654857
 20
2.793802054279598
 30
0.0
 11
5.27020593565486
 21
2.793802054279598
 31
0.0
  0
LINE
  5
DCF6
330
1F
100
AcDbEntity
  8
NETAFIM-L-DETL-PATT-013M
100
AcDbLine
 10
5.570088035654858
 20
2.793802054279598
 30
0.0
 11
5.620205935654855
 21
2.793802054279598
 31
0.0
  0
LINE
  5
DCF7
330
1F
100
AcDbEntity
  8
NETAFIM-L-DETL-PATT-013M
100
AcDbLine
 10
4.520088035654854
 20
3.143802054279598
 30
0.0
 11
4.570205935654858
 21
3.143802054279598
 31
0.0
  0
LINE
  5
DCF8
330
1F
100
AcDbEntity
  8
NETAFIM-L-DETL-PATT-013M
100
AcDbLine
 10
5.229747673614117
 20
3.143802054279598
 30
0.0
 11
5.27020593565486
 21
3.143802054279598
 31
0.0
  0
LINE
  5
DCF9
330
1F
100
AcDbEntity
  8
NETAFIM-L-DETL-PATT-013M
100
AcDbLine
 10
4.501991621400247
 20
3.161900609598271
 30
0.0
 11
4.520089142289283
 21
3.143803088709235
 31
0.0
  0
LINE
  5
DCFA
330
1F
100
AcDbEntity
  8
NETAFIM-L-DETL-PATT-013M
100
AcDbLine
 10
4.834650543647587
 20
2.82924168735093
 30
0.0
 11
4.870089250596418
 21
2.793802980402102
 31
0.0
  0
LINE
  5
DCFB
330
1F
100
AcDbEntity
  8
NETAFIM-L-DETL-PATT-013M
100
AcDbLine
 10
5.184650651954722
 20
2.479241579043798
 30
0.0
 11
5.206915600686333
 21
2.456976630312191
 31
0.0
  0
LINE
  5
DCFC
330
1F
100
AcDbEntity
  8
NETAFIM-L-DETL-PATT-013M
100
AcDbLine
 10
5.184650651954722
 20
2.82924168735093
 30
0.0
 11
5.220089358903553
 21
2.793802980402102
 31
0.0
  0
LINE
  5
DCFD
330
1F
100
AcDbEntity
  8
NETAFIM-L-DETL-PATT-013M
100
AcDbLine
 10
5.534650760261857
 20
2.479241579043798
 30
0.0
 11
5.538018034832834
 21
2.475874304472818
 31
0.0
  0
LINE
  5
DCFE
330
1F
100
AcDbEntity
  8
NETAFIM-L-DETL-PATT-013M
100
AcDbLine
 10
5.534650760261857
 20
2.82924168735093
 30
0.0
 11
5.570089467210681
 21
2.793802980402102
 31
0.0
  0
LINE
  5
DCFF
330
1F
100
AcDbEntity
  8
NETAFIM-L-DETL-PATT-013M
100
AcDbLine
 10
4.484650435340451
 20
2.82924168735093
 30
0.0
 11
4.520089142289283
 21
2.793802980402101
 31
0.0
  0
LINE
  5
DD00
330
1F
100
AcDbEntity
  8
NETAFIM-L-DETL-PATT-013M
100
AcDbLine
 10
4.834650543647587
 20
2.479241579043798
 30
0.0
 11
4.842010641116406
 21
2.471881481574977
 31
0.0
  0
LINE
  5
DD01
330
1F
100
AcDbEntity
  8
NETAFIM-L-DETL-PATT-013M
100
AcDbLine
 10
4.83464913565486
 20
2.879358504279598
 30
0.0
 11
4.83464913565486
 21
2.829240604279598
 31
0.0
  0
LINE
  5
DD02
330
1F
100
AcDbEntity
  8
NETAFIM-L-DETL-PATT-013M
100
AcDbLine
 10
4.83464913565486
 20
2.529358504279596
 30
0.0
 11
4.83464913565486
 21
2.479240604279596
 31
0.0
  0
LINE
  5
DD03
330
1F
100
AcDbEntity
  8
NETAFIM-L-DETL-PATT-013M
100
AcDbLine
 10
5.184649135654854
 20
2.879358504279598
 30
0.0
 11
5.184649135654854
 21
2.829240604279598
 31
0.0
  0
LINE
  5
DD04
330
1F
100
AcDbEntity
  8
NETAFIM-L-DETL-PATT-013M
100
AcDbLine
 10
5.184649135654854
 20
2.529358504279596
 30
0.0
 11
5.184649135654854
 21
2.479240604279596
 31
0.0
  0
LINE
  5
DD05
330
1F
100
AcDbEntity
  8
NETAFIM-L-DETL-PATT-013M
100
AcDbLine
 10
5.534649135654856
 20
2.879358504279598
 30
0.0
 11
5.534649135654856
 21
2.829240604279598
 31
0.0
  0
LINE
  5
DD06
330
1F
100
AcDbEntity
  8
NETAFIM-L-DETL-PATT-013M
100
AcDbLine
 10
5.534649135654856
 20
2.529358504279596
 30
0.0
 11
5.534649135654856
 21
2.479240604279596
 31
0.0
  0
LINE
  5
DD07
330
1F
100
AcDbEntity
  8
NETAFIM-L-DETL-PATT-013M
100
AcDbLine
 10
5.884649135654857
 20
2.529358504279596
 30
0.0
 11
5.884649135654857
 21
2.527484904712104
 31
0.0
  0
LINE
  5
DD08
330
1F
100
AcDbEntity
  8
NETAFIM-L-DETL-PATT-013M
100
AcDbLine
 10
4.484649135654859
 20
2.879358504279598
 30
0.0
 11
4.484649135654859
 21
2.829240604279598
 31
0.0
  0
LINE
  5
DD09
330
1F
100
AcDbEntity
  8
NETAFIM-L-DETL-PATT-013M
100
AcDbLine
 10
5.220089551954725
 20
2.914798487350931
 30
0.0
 11
5.184650845005894
 21
2.879359780402102
 31
0.0
  0
LINE
  5
DD0A
330
1F
100
AcDbEntity
  8
NETAFIM-L-DETL-PATT-013M
100
AcDbLine
 10
4.870089443647589
 20
2.564798379043797
 30
0.0
 11
4.834650736698758
 21
2.529359672094968
 31
0.0
  0
LINE
  5
DD0B
330
1F
100
AcDbEntity
  8
NETAFIM-L-DETL-PATT-013M
100
AcDbLine
 10
5.57008966026186
 20
2.914798487350931
 30
0.0
 11
5.534650953313029
 21
2.879359780402102
 31
0.0
  0
LINE
  5
DD0C
330
1F
100
AcDbEntity
  8
NETAFIM-L-DETL-PATT-013M
100
AcDbLine
 10
5.220089551954725
 20
2.564798379043797
 30
0.0
 11
5.184650845005894
 21
2.529359672094968
 31
0.0
  0
LINE
  5
DD0D
330
1F
100
AcDbEntity
  8
NETAFIM-L-DETL-PATT-013M
100
AcDbLine
 10
5.57008966026186
 20
2.564798379043797
 30
0.0
 11
5.534650953313029
 21
2.52935967209497
 31
0.0
  0
LINE
  5
DD0E
330
1F
100
AcDbEntity
  8
NETAFIM-L-DETL-PATT-013M
100
AcDbLine
 10
5.920089768568988
 20
2.564798379043797
 30
0.0
 11
5.884651061620157
 21
2.529359672094968
 31
0.0
  0
LINE
  5
DD0F
330
1F
100
AcDbEntity
  8
NETAFIM-L-DETL-PATT-013M
100
AcDbLine
 10
4.870089443647589
 20
2.914798487350929
 30
0.0
 11
4.834650736698758
 21
2.879359780402102
 31
0.0
  0
LINE
  5
DD10
330
1F
100
AcDbEntity
  8
NETAFIM-L-DETL-PATT-013M
100
AcDbLine
 10
4.520089335340454
 20
2.914798487350931
 30
0.0
 11
4.48465062839163
 21
2.879359780402102
 31
0.0
  0
LINE
  5
DD11
330
1F
100
AcDbEntity
  8
NETAFIM-L-DETL-PATT-013M
100
AcDbLine
 10
5.970205935654856
 20
2.564797404279597
 30
0.0
 11
5.92008803565486
 21
2.564797404279597
 31
0.0
  0
LINE
  5
DD12
330
1F
100
AcDbEntity
  8
NETAFIM-L-DETL-PATT-013M
100
AcDbLine
 10
5.620205935654855
 20
2.564797404279597
 30
0.0
 11
5.570088035654858
 21
2.564797404279597
 31
0.0
  0
LINE
  5
DD13
330
1F
100
AcDbEntity
  8
NETAFIM-L-DETL-PATT-013M
100
AcDbLine
 10
5.27020593565486
 20
2.564797404279597
 30
0.0
 11
5.220088035654857
 21
2.564797404279597
 31
0.0
  0
LINE
  5
DD14
330
1F
100
AcDbEntity
  8
NETAFIM-L-DETL-PATT-013M
100
AcDbLine
 10
4.920205935654859
 20
2.564797404279597
 30
0.0
 11
4.870088035654855
 21
2.564797404279597
 31
0.0
  0
LINE
  5
DD15
330
1F
100
AcDbEntity
  8
NETAFIM-L-DETL-PATT-013M
100
AcDbLine
 10
5.620205935654855
 20
2.914797404279597
 30
0.0
 11
5.570088035654858
 21
2.914797404279597
 31
0.0
  0
LINE
  5
DD16
330
1F
100
AcDbEntity
  8
NETAFIM-L-DETL-PATT-013M
100
AcDbLine
 10
5.27020593565486
 20
2.914797404279597
 30
0.0
 11
5.220088035654857
 21
2.914797404279597
 31
0.0
  0
LINE
  5
DD17
330
1F
100
AcDbEntity
  8
NETAFIM-L-DETL-PATT-013M
100
AcDbLine
 10
4.920205935654859
 20
2.914797404279597
 30
0.0
 11
4.870088035654855
 21
2.914797404279597
 31
0.0
  0
LINE
  5
DD18
330
1F
100
AcDbEntity
  8
NETAFIM-L-DETL-PATT-013M
100
AcDbLine
 10
4.570205935654858
 20
2.914797404279597
 30
0.0
 11
4.520088035654861
 21
2.914797404279597
 31
0.0
  0
LINE
  5
DD19
330
1F
100
AcDbEntity
  8
NETAFIM-L-DETL-PATT-013M
100
AcDbLine
 10
5.305646001954723
 20
2.529359479043798
 30
0.0
 11
5.270207295005892
 21
2.564798185992626
 31
0.0
  0
LINE
  5
DD1A
330
1F
100
AcDbEntity
  8
NETAFIM-L-DETL-PATT-013M
100
AcDbLine
 10
4.955645893647588
 20
2.87935958735093
 30
0.0
 11
4.920207186698757
 21
2.914798294299761
 31
0.0
  0
LINE
  5
DD1B
330
1F
100
AcDbEntity
  8
NETAFIM-L-DETL-PATT-013M
100
AcDbLine
 10
4.955645893647588
 20
2.529359479043798
 30
0.0
 11
4.920207186698757
 21
2.564798185992626
 31
0.0
  0
LINE
  5
DD1C
330
1F
100
AcDbEntity
  8
NETAFIM-L-DETL-PATT-013M
100
AcDbLine
 10
4.605645785340453
 20
2.87935958735093
 30
0.0
 11
4.570207078391629
 21
2.914798294299759
 31
0.0
  0
LINE
  5
DD1D
330
1F
100
AcDbEntity
  8
NETAFIM-L-DETL-PATT-013M
100
AcDbLine
 10
5.655646110261859
 20
2.529359479043798
 30
0.0
 11
5.620207403313028
 21
2.564798185992626
 31
0.0
  0
LINE
  5
DD1E
330
1F
100
AcDbEntity
  8
NETAFIM-L-DETL-PATT-013M
100
AcDbLine
 10
5.305646001954723
 20
2.87935958735093
 30
0.0
 11
5.270207295005892
 21
2.914798294299761
 31
0.0
  0
LINE
  5
DD1F
330
1F
100
AcDbEntity
  8
NETAFIM-L-DETL-PATT-013M
100
AcDbLine
 10
5.984784463873456
 20
2.550221233739327
 30
0.0
 11
5.970207511620156
 21
2.564798185992626
 31
0.0
  0
LINE
  5
DD20
330
1F
100
AcDbEntity
  8
NETAFIM-L-DETL-PATT-013M
100
AcDbLine
 10
5.655646110261852
 20
2.87935958735093
 30
0.0
 11
5.620207403313028
 21
2.914798294299759
 31
0.0
  0
LINE
  5
DD21
330
1F
100
AcDbEntity
  8
NETAFIM-L-DETL-PATT-013M
100
AcDbLine
 10
5.091764385654858
 20
2.594000704279598
 30
0.0
 11
5.091764385654858
 21
2.657860654279597
 31
0.0
  0
LINE
  5
DD22
330
1F
100
AcDbEntity
  8
NETAFIM-L-DETL-PATT-013M
100
AcDbLine
 10
5.091764385654858
 20
2.944000704279598
 30
0.0
 11
5.091764385654858
 21
3.007860654279598
 31
0.0
  0
LINE
  5
DD23
330
1F
100
AcDbEntity
  8
NETAFIM-L-DETL-PATT-013M
100
AcDbLine
 10
4.741764385654857
 20
2.594000704279598
 30
0.0
 11
4.741764385654857
 21
2.657860654279597
 31
0.0
  0
LINE
  5
DD24
330
1F
100
AcDbEntity
  8
NETAFIM-L-DETL-PATT-013M
100
AcDbLine
 10
4.741764385654857
 20
2.944000704279598
 30
0.0
 11
4.741764385654857
 21
3.007860654279598
 31
0.0
  0
LINE
  5
DD25
330
1F
100
AcDbEntity
  8
NETAFIM-L-DETL-PATT-013M
100
AcDbLine
 10
4.391764385654855
 20
2.636592546671436
 30
0.0
 11
4.391764385654855
 21
2.657860654279597
 31
0.0
  0
LINE
  5
DD26
330
1F
100
AcDbEntity
  8
NETAFIM-L-DETL-PATT-013M
100
AcDbLine
 10
4.391764385654855
 20
2.944000704279598
 30
0.0
 11
4.391764385654855
 21
3.007860654279598
 31
0.0
  0
LINE
  5
DD27
330
1F
100
AcDbEntity
  8
NETAFIM-L-DETL-PATT-013M
100
AcDbLine
 10
5.44176438565486
 20
2.594000704279598
 30
0.0
 11
5.44176438565486
 21
2.657860654279597
 31
0.0
  0
LINE
  5
DD28
330
1F
100
AcDbEntity
  8
NETAFIM-L-DETL-PATT-013M
100
AcDbLine
 10
5.44176438565486
 20
2.944000704279598
 30
0.0
 11
5.44176438565486
 21
3.007860654279598
 31
0.0
  0
LINE
  5
DD29
330
1F
100
AcDbEntity
  8
NETAFIM-L-DETL-PATT-013M
100
AcDbLine
 10
5.791764385654861
 20
2.594000704279598
 30
0.0
 11
5.791764385654861
 21
2.657860654279597
 31
0.0
  0
LINE
  5
DD2A
330
1F
100
AcDbEntity
  8
NETAFIM-L-DETL-PATT-013M
100
AcDbLine
 10
5.791764385654861
 20
2.944000704279598
 30
0.0
 11
5.791764385654861
 21
3.007860654279598
 31
0.0
  0
LINE
  5
DD2B
330
1F
100
AcDbEntity
  8
NETAFIM-L-DETL-PATT-013M
100
AcDbLine
 10
4.709958838543951
 20
2.562194832247292
 30
0.0
 11
4.741765539031693
 21
2.594001532735032
 31
0.0
  0
LINE
  5
DD2C
330
1F
100
AcDbEntity
  8
NETAFIM-L-DETL-PATT-013M
100
AcDbLine
 10
5.046609843647591
 20
2.89884583735093
 30
0.0
 11
5.091765647338821
 21
2.944001641042164
 31
0.0
  0
LINE
  5
DD2D
330
1F
100
AcDbEntity
  8
NETAFIM-L-DETL-PATT-013M
100
AcDbLine
 10
4.696609735340455
 20
2.89884583735093
 30
0.0
 11
4.741765539031693
 21
2.944001641042164
 31
0.0
  0
LINE
  5
DD2E
330
1F
100
AcDbEntity
  8
NETAFIM-L-DETL-PATT-013M
100
AcDbLine
 10
4.34660962703332
 20
2.89884583735093
 30
0.0
 11
4.391765430724557
 21
2.944001641042164
 31
0.0
  0
LINE
  5
DD2F
330
1F
100
AcDbEntity
  8
NETAFIM-L-DETL-PATT-013M
100
AcDbLine
 10
5.046609843647591
 20
2.548845729043798
 30
0.0
 11
5.091765647338821
 21
2.594001532735032
 31
0.0
  0
LINE
  5
DD30
330
1F
100
AcDbEntity
  8
NETAFIM-L-DETL-PATT-013M
100
AcDbLine
 10
5.396609951954726
 20
2.89884583735093
 30
0.0
 11
5.441765755645956
 21
2.944001641042164
 31
0.0
  0
LINE
  5
DD31
330
1F
100
AcDbEntity
  8
NETAFIM-L-DETL-PATT-013M
100
AcDbLine
 10
5.396609951954726
 20
2.548845729043798
 30
0.0
 11
5.441765755645956
 21
2.594001532735032
 31
0.0
  0
LINE
  5
DD32
330
1F
100
AcDbEntity
  8
NETAFIM-L-DETL-PATT-013M
100
AcDbLine
 10
5.746610060261861
 20
2.89884583735093
 30
0.0
 11
5.791765863953092
 21
2.944001641042164
 31
0.0
  0
LINE
  5
DD33
330
1F
100
AcDbEntity
  8
NETAFIM-L-DETL-PATT-013M
100
AcDbLine
 10
5.746610060261854
 20
2.548845729043798
 30
0.0
 11
5.791765863953092
 21
2.594001532735032
 31
0.0
  0
LINE
  5
DD34
330
1F
100
AcDbEntity
  8
NETAFIM-L-DETL-PATT-013M
100
AcDbLine
 10
4.982748485654855
 20
2.548844754279596
 30
0.0
 11
5.046608435654857
 21
2.548844754279596
 31
0.0
  0
LINE
  5
DD35
330
1F
100
AcDbEntity
  8
NETAFIM-L-DETL-PATT-013M
100
AcDbLine
 10
5.332748485654857
 20
2.548844754279596
 30
0.0
 11
5.396608435654858
 21
2.548844754279596
 31
0.0
  0
LINE
  5
DD36
330
1F
100
AcDbEntity
  8
NETAFIM-L-DETL-PATT-013M
100
AcDbLine
 10
5.682748485654858
 20
2.548844754279596
 30
0.0
 11
5.746608435654859
 21
2.548844754279596
 31
0.0
  0
LINE
  5
DD37
330
1F
100
AcDbEntity
  8
NETAFIM-L-DETL-PATT-013M
100
AcDbLine
 10
4.339409185654862
 20
2.898844754279598
 30
0.0
 11
4.346608435654861
 21
2.898844754279598
 31
0.0
  0
LINE
  5
DD38
330
1F
100
AcDbEntity
  8
NETAFIM-L-DETL-PATT-013M
100
AcDbLine
 10
4.632748485654861
 20
2.898844754279598
 30
0.0
 11
4.696608435654855
 21
2.898844754279598
 31
0.0
  0
LINE
  5
DD39
330
1F
100
AcDbEntity
  8
NETAFIM-L-DETL-PATT-013M
100
AcDbLine
 10
4.982748485654855
 20
2.898844754279598
 30
0.0
 11
5.046608435654857
 21
2.898844754279598
 31
0.0
  0
LINE
  5
DD3A
330
1F
100
AcDbEntity
  8
NETAFIM-L-DETL-PATT-013M
100
AcDbLine
 10
5.332748485654857
 20
2.898844754279598
 30
0.0
 11
5.396608435654858
 21
2.898844754279598
 31
0.0
  0
LINE
  5
DD3B
330
1F
100
AcDbEntity
  8
NETAFIM-L-DETL-PATT-013M
100
AcDbLine
 10
5.682748485654858
 20
2.898844754279598
 30
0.0
 11
5.746608435654859
 21
2.898844754279598
 31
0.0
  0
LINE
  5
DD3C
330
1F
100
AcDbEntity
  8
NETAFIM-L-DETL-PATT-013M
100
AcDbLine
 10
4.937594293647588
 20
2.944001787350932
 30
0.0
 11
4.982750097338826
 21
2.898845983659698
 31
0.0
  0
LINE
  5
DD3D
330
1F
100
AcDbEntity
  8
NETAFIM-L-DETL-PATT-013M
100
AcDbLine
 10
5.287594401954724
 20
2.594001679043798
 30
0.0
 11
5.332750205645954
 21
2.548845875352564
 31
0.0
  0
LINE
  5
DD3E
330
1F
100
AcDbEntity
  8
NETAFIM-L-DETL-PATT-013M
100
AcDbLine
 10
5.287594401954724
 20
2.944001787350932
 30
0.0
 11
5.332750205645954
 21
2.898845983659698
 31
0.0
  0
LINE
  5
DD3F
330
1F
100
AcDbEntity
  8
NETAFIM-L-DETL-PATT-013M
100
AcDbLine
 10
5.637594510261852
 20
2.594001679043796
 30
0.0
 11
5.682750313953089
 21
2.548845875352562
 31
0.0
  0
LINE
  5
DD40
330
1F
100
AcDbEntity
  8
NETAFIM-L-DETL-PATT-013M
100
AcDbLine
 10
5.637594510261852
 20
2.944001787350932
 30
0.0
 11
5.682750313953089
 21
2.898845983659698
 31
0.0
  0
LINE
  5
DD41
330
1F
100
AcDbEntity
  8
NETAFIM-L-DETL-PATT-013M
100
AcDbLine
 10
5.987594618568987
 20
2.594001679043796
 30
0.0
 11
6.022753879501731
 21
2.558842418111056
 31
0.0
  0
LINE
  5
DD42
330
1F
100
AcDbEntity
  8
NETAFIM-L-DETL-PATT-013M
100
AcDbLine
 10
4.587594185340453
 20
2.94400178735093
 30
0.0
 11
4.63274998903169
 21
2.898845983659696
 31
0.0
  0
LINE
  5
DD43
330
1F
100
AcDbEntity
  8
NETAFIM-L-DETL-PATT-013M
100
AcDbLine
 10
4.937594293647588
 20
2.594001679043796
 30
0.0
 11
4.982750097338826
 21
2.548845875352562
 31
0.0
  0
LINE
  5
DD44
330
1F
100
AcDbEntity
  8
NETAFIM-L-DETL-PATT-013M
100
AcDbLine
 10
4.937592885654854
 20
3.007860304279597
 30
0.0
 11
4.937592885654854
 21
2.944000354279597
 31
0.0
  0
LINE
  5
DD45
330
1F
100
AcDbEntity
  8
NETAFIM-L-DETL-PATT-013M
100
AcDbLine
 10
4.937592885654854
 20
2.657860304279599
 30
0.0
 11
4.937592885654854
 21
2.594000354279597
 31
0.0
  0
LINE
  5
DD46
330
1F
100
AcDbEntity
  8
NETAFIM-L-DETL-PATT-013M
100
AcDbLine
 10
5.287592885654856
 20
3.007860304279597
 30
0.0
 11
5.287592885654856
 21
2.944000354279597
 31
0.0
  0
LINE
  5
DD47
330
1F
100
AcDbEntity
  8
NETAFIM-L-DETL-PATT-013M
100
AcDbLine
 10
5.287592885654856
 20
2.657860304279599
 30
0.0
 11
5.287592885654856
 21
2.594000354279597
 31
0.0
  0
LINE
  5
DD48
330
1F
100
AcDbEntity
  8
NETAFIM-L-DETL-PATT-013M
100
AcDbLine
 10
5.637592885654857
 20
3.007860304279597
 30
0.0
 11
5.637592885654857
 21
2.944000354279597
 31
0.0
  0
LINE
  5
DD49
330
1F
100
AcDbEntity
  8
NETAFIM-L-DETL-PATT-013M
100
AcDbLine
 10
5.637592885654857
 20
2.657860304279599
 30
0.0
 11
5.637592885654857
 21
2.594000354279597
 31
0.0
  0
LINE
  5
DD4A
330
1F
100
AcDbEntity
  8
NETAFIM-L-DETL-PATT-013M
100
AcDbLine
 10
5.987592885654859
 20
2.657860304279599
 30
0.0
 11
5.987592885654859
 21
2.594000354279597
 31
0.0
  0
LINE
  5
DD4B
330
1F
100
AcDbEntity
  8
NETAFIM-L-DETL-PATT-013M
100
AcDbLine
 10
4.58759288565486
 20
3.007860304279597
 30
0.0
 11
4.58759288565486
 21
2.944000354279597
 31
0.0
  0
LINE
  5
DD4C
330
1F
100
AcDbEntity
  8
NETAFIM-L-DETL-PATT-013M
100
AcDbLine
 10
4.58759288565486
 20
2.657860304279599
 30
0.0
 11
4.58759288565486
 21
2.604748171695656
 31
0.0
  0
LINE
  5
DD4D
330
1F
100
AcDbEntity
  8
NETAFIM-L-DETL-PATT-013M
100
AcDbLine
 10
5.332750001954725
 20
3.053017337350931
 30
0.0
 11
5.287594198263487
 21
3.007861533659697
 31
0.0
  0
LINE
  5
DD4E
330
1F
100
AcDbEntity
  8
NETAFIM-L-DETL-PATT-013M
100
AcDbLine
 10
4.982749893647589
 20
2.703017229043799
 30
0.0
 11
4.937594089956359
 21
2.657861425352565
 31
0.0
  0
LINE
  5
DD4F
330
1F
100
AcDbEntity
  8
NETAFIM-L-DETL-PATT-013M
100
AcDbLine
 10
5.68275011026186
 20
3.053017337350931
 30
0.0
 11
5.637594306570623
 21
3.007861533659697
 31
0.0
  0
LINE
  5
DD50
330
1F
100
AcDbEntity
  8
NETAFIM-L-DETL-PATT-013M
100
AcDbLine
 10
5.332750001954725
 20
2.703017229043799
 30
0.0
 11
5.287594198263487
 21
2.657861425352565
 31
0.0
  0
LINE
  5
DD51
330
1F
100
AcDbEntity
  8
NETAFIM-L-DETL-PATT-013M
100
AcDbLine
 10
5.682750110261853
 20
2.703017229043799
 30
0.0
 11
5.637594306570623
 21
2.657861425352565
 31
0.0
  0
LINE
  5
DD52
330
1F
100
AcDbEntity
  8
NETAFIM-L-DETL-PATT-013M
100
AcDbLine
 10
6.02610427749504
 20
2.696371287969847
 30
0.0
 11
5.987594414877758
 21
2.657861425352565
 31
0.0
  0
LINE
  5
DD53
330
1F
100
AcDbEntity
  8
NETAFIM-L-DETL-PATT-013M
100
AcDbLine
 10
4.982749893647589
 20
3.053017337350931
 30
0.0
 11
4.937594089956359
 21
3.007861533659697
 31
0.0
  0
LINE
  5
DD54
330
1F
100
AcDbEntity
  8
NETAFIM-L-DETL-PATT-013M
100
AcDbLine
 10
4.632749785340454
 20
2.703017229043799
 30
0.0
 11
4.587593981649224
 21
2.657861425352565
 31
0.0
  0
LINE
  5
DD55
330
1F
100
AcDbEntity
  8
NETAFIM-L-DETL-PATT-013M
100
AcDbLine
 10
4.632749785340454
 20
3.053017337350931
 30
0.0
 11
4.587593981649224
 21
3.007861533659697
 31
0.0
  0
LINE
  5
DD56
330
1F
100
AcDbEntity
  8
NETAFIM-L-DETL-PATT-013M
100
AcDbLine
 10
5.746608435654859
 20
2.703016254279597
 30
0.0
 11
5.682748485654858
 21
2.703016254279597
 31
0.0
  0
LINE
  5
DD57
330
1F
100
AcDbEntity
  8
NETAFIM-L-DETL-PATT-013M
100
AcDbLine
 10
5.396608435654858
 20
2.703016254279597
 30
0.0
 11
5.332748485654857
 21
2.703016254279597
 31
0.0
  0
LINE
  5
DD58
330
1F
100
AcDbEntity
  8
NETAFIM-L-DETL-PATT-013M
100
AcDbLine
 10
5.046608435654857
 20
2.703016254279597
 30
0.0
 11
4.982748485654855
 21
2.703016254279597
 31
0.0
  0
LINE
  5
DD59
330
1F
100
AcDbEntity
  8
NETAFIM-L-DETL-PATT-013M
100
AcDbLine
 10
4.696608435654855
 20
2.703016254279597
 30
0.0
 11
4.632748485654854
 21
2.703016254279597
 31
0.0
  0
LINE
  5
DD5A
330
1F
100
AcDbEntity
  8
NETAFIM-L-DETL-PATT-013M
100
AcDbLine
 10
4.346608435654854
 20
2.703016254279597
 30
0.0
 11
4.282748485654852
 21
2.703016254279597
 31
0.0
  0
LINE
  5
DD5B
330
1F
100
AcDbEntity
  8
NETAFIM-L-DETL-PATT-013M
100
AcDbLine
 10
5.746608435654859
 20
3.053016254279599
 30
0.0
 11
5.682748485654858
 21
3.053016254279599
 31
0.0
  0
LINE
  5
DD5C
330
1F
100
AcDbEntity
  8
NETAFIM-L-DETL-PATT-013M
100
AcDbLine
 10
5.396608435654858
 20
3.053016254279599
 30
0.0
 11
5.332748485654857
 21
3.053016254279599
 31
0.0
  0
LINE
  5
DD5D
330
1F
100
AcDbEntity
  8
NETAFIM-L-DETL-PATT-013M
100
AcDbLine
 10
5.046608435654857
 20
3.053016254279599
 30
0.0
 11
4.982748485654855
 21
3.053016254279599
 31
0.0
  0
LINE
  5
DD5E
330
1F
100
AcDbEntity
  8
NETAFIM-L-DETL-PATT-013M
100
AcDbLine
 10
4.696608435654855
 20
3.053016254279599
 30
0.0
 11
4.632748485654854
 21
3.053016254279599
 31
0.0
  0
LINE
  5
DD5F
330
1F
100
AcDbEntity
  8
NETAFIM-L-DETL-PATT-013M
100
AcDbLine
 10
4.346608435654854
 20
3.053016254279599
 30
0.0
 11
4.339409185654862
 21
3.053016254279599
 31
0.0
  0
LINE
  5
DD60
330
1F
100
AcDbEntity
  8
NETAFIM-L-DETL-PATT-013M
100
AcDbLine
 10
5.091765793647585
 20
2.657861279043797
 30
0.0
 11
5.046609989956355
 21
2.703017082735031
 31
0.0
  0
LINE
  5
DD61
330
1F
100
AcDbEntity
  8
NETAFIM-L-DETL-PATT-013M
100
AcDbLine
 10
4.741765685340457
 20
3.00786138735093
 30
0.0
 11
4.696609881649219
 21
3.053017191042163
 31
0.0
  0
LINE
  5
DD62
330
1F
100
AcDbEntity
  8
NETAFIM-L-DETL-PATT-013M
100
AcDbLine
 10
4.741765685340457
 20
2.657861279043797
 30
0.0
 11
4.696609881649219
 21
2.703017082735031
 31
0.0
  0
LINE
  5
DD63
330
1F
100
AcDbEntity
  8
NETAFIM-L-DETL-PATT-013M
100
AcDbLine
 10
4.391765577033321
 20
3.00786138735093
 30
0.0
 11
4.346609773342084
 21
3.053017191042163
 31
0.0
  0
LINE
  5
DD64
330
1F
100
AcDbEntity
  8
NETAFIM-L-DETL-PATT-013M
100
AcDbLine
 10
4.391765577033321
 20
2.657861279043797
 30
0.0
 11
4.346609773342084
 21
2.703017082735031
 31
0.0
  0
LINE
  5
DD65
330
1F
100
AcDbEntity
  8
NETAFIM-L-DETL-PATT-013M
100
AcDbLine
 10
5.44176590195472
 20
2.657861279043797
 30
0.0
 11
5.39661009826349
 21
2.703017082735031
 31
0.0
  0
LINE
  5
DD66
330
1F
100
AcDbEntity
  8
NETAFIM-L-DETL-PATT-013M
100
AcDbLine
 10
5.091765793647585
 20
3.00786138735093
 30
0.0
 11
5.046609989956355
 21
3.053017191042163
 31
0.0
  0
LINE
  5
DD67
330
1F
100
AcDbEntity
  8
NETAFIM-L-DETL-PATT-013M
100
AcDbLine
 10
5.791766010261856
 20
2.657861279043797
 30
0.0
 11
5.746610206570618
 21
2.703017082735031
 31
0.0
  0
LINE
  5
DD68
330
1F
100
AcDbEntity
  8
NETAFIM-L-DETL-PATT-013M
100
AcDbLine
 10
5.44176590195472
 20
3.00786138735093
 30
0.0
 11
5.39661009826349
 21
3.053017191042163
 31
0.0
  0
LINE
  5
DD69
330
1F
100
AcDbEntity
  8
NETAFIM-L-DETL-PATT-013M
100
AcDbLine
 10
5.791766010261856
 20
3.00786138735093
 30
0.0
 11
5.746610206570618
 21
3.053017191042163
 31
0.0
  0
LINE
  5
DD6A
330
1F
100
AcDbEntity
  8
NETAFIM-L-DETL-PATT-013M
100
AcDbLine
 10
4.879046635654855
 20
2.613424304279598
 30
0.0
 11
4.879046635654855
 21
2.646566854279599
 31
0.0
  0
LINE
  5
DD6B
330
1F
100
AcDbEntity
  8
NETAFIM-L-DETL-PATT-013M
100
AcDbLine
 10
4.879046635654855
 20
2.963424304279596
 30
0.0
 11
4.879046635654855
 21
2.996566854279597
 31
0.0
  0
LINE
  5
DD6C
330
1F
100
AcDbEntity
  8
NETAFIM-L-DETL-PATT-013M
100
AcDbLine
 10
4.529046635654854
 20
2.621621060512205
 30
0.0
 11
4.529046635654854
 21
2.646566854279599
 31
0.0
  0
LINE
  5
DD6D
330
1F
100
AcDbEntity
  8
NETAFIM-L-DETL-PATT-013M
100
AcDbLine
 10
4.529046635654854
 20
2.963424304279596
 30
0.0
 11
4.529046635654854
 21
2.996566854279597
 31
0.0
  0
LINE
  5
DD6E
330
1F
100
AcDbEntity
  8
NETAFIM-L-DETL-PATT-013M
100
AcDbLine
 10
5.229046635654857
 20
2.613424304279598
 30
0.0
 11
5.229046635654857
 21
2.646566854279599
 31
0.0
  0
LINE
  5
DD6F
330
1F
100
AcDbEntity
  8
NETAFIM-L-DETL-PATT-013M
100
AcDbLine
 10
5.229046635654857
 20
2.963424304279596
 30
0.0
 11
5.229046635654857
 21
2.996566854279597
 31
0.0
  0
LINE
  5
DD70
330
1F
100
AcDbEntity
  8
NETAFIM-L-DETL-PATT-013M
100
AcDbLine
 10
5.579046635654858
 20
2.613424304279598
 30
0.0
 11
5.579046635654858
 21
2.646566854279599
 31
0.0
  0
LINE
  5
DD71
330
1F
100
AcDbEntity
  8
NETAFIM-L-DETL-PATT-013M
100
AcDbLine
 10
5.579046635654858
 20
2.963424304279596
 30
0.0
 11
5.579046635654858
 21
2.996566854279597
 31
0.0
  0
LINE
  5
DD72
330
1F
100
AcDbEntity
  8
NETAFIM-L-DETL-PATT-013M
100
AcDbLine
 10
5.929046635654859
 20
2.613424304279598
 30
0.0
 11
5.929046635654859
 21
2.646566854279599
 31
0.0
  0
LINE
  5
DD73
330
1F
100
AcDbEntity
  8
NETAFIM-L-DETL-PATT-013M
100
AcDbLine
 10
4.855612743647586
 20
2.589990329043797
 30
0.0
 11
4.879048065498405
 21
2.613425650894611
 31
0.0
  0
LINE
  5
DD74
330
1F
100
AcDbEntity
  8
NETAFIM-L-DETL-PATT-013M
100
AcDbLine
 10
5.205612851954722
 20
2.939990437350929
 30
0.0
 11
5.229048173805541
 21
2.963425759201745
 31
0.0
  0
LINE
  5
DD75
330
1F
100
AcDbEntity
  8
NETAFIM-L-DETL-PATT-013M
100
AcDbLine
 10
4.855612743647586
 20
2.939990437350929
 30
0.0
 11
4.879048065498405
 21
2.963425759201745
 31
0.0
  0
LINE
  5
DD76
330
1F
100
AcDbEntity
  8
NETAFIM-L-DETL-PATT-013M
100
AcDbLine
 10
4.505612635340458
 20
2.939990437350929
 30
0.0
 11
4.52904795719127
 21
2.963425759201745
 31
0.0
  0
LINE
  5
DD77
330
1F
100
AcDbEntity
  8
NETAFIM-L-DETL-PATT-013M
100
AcDbLine
 10
5.205612851954722
 20
2.589990329043797
 30
0.0
 11
5.229048173805541
 21
2.613425650894613
 31
0.0
  0
LINE
  5
DD78
330
1F
100
AcDbEntity
  8
NETAFIM-L-DETL-PATT-013M
100
AcDbLine
 10
5.555612960261857
 20
2.939990437350931
 30
0.0
 11
5.579048282112669
 21
2.963425759201745
 31
0.0
  0
LINE
  5
DD79
330
1F
100
AcDbEntity
  8
NETAFIM-L-DETL-PATT-013M
100
AcDbLine
 10
5.555612960261857
 20
2.589990329043797
 30
0.0
 11
5.579048282112669
 21
2.613425650894611
 31
0.0
  0
LINE
  5
DD7A
330
1F
100
AcDbEntity
  8
NETAFIM-L-DETL-PATT-013M
100
AcDbLine
 10
5.905613068568992
 20
2.589990329043797
 30
0.0
 11
5.929048390419804
 21
2.613425650894611
 31
0.0
  0
LINE
  5
DD7B
330
1F
100
AcDbEntity
  8
NETAFIM-L-DETL-PATT-013M
100
AcDbLine
 10
4.822469135654859
 20
2.589989354279597
 30
0.0
 11
4.85561168565486
 21
2.589989354279597
 31
0.0
  0
LINE
  5
DD7C
330
1F
100
AcDbEntity
  8
NETAFIM-L-DETL-PATT-013M
100
AcDbLine
 10
5.172469135654853
 20
2.589989354279597
 30
0.0
 11
5.205611685654854
 21
2.589989354279597
 31
0.0
  0
LINE
  5
DD7D
330
1F
100
AcDbEntity
  8
NETAFIM-L-DETL-PATT-013M
100
AcDbLine
 10
5.522469135654855
 20
2.589989354279597
 30
0.0
 11
5.555611685654856
 21
2.589989354279597
 31
0.0
  0
LINE
  5
DD7E
330
1F
100
AcDbEntity
  8
NETAFIM-L-DETL-PATT-013M
100
AcDbLine
 10
5.872469135654856
 20
2.589989354279597
 30
0.0
 11
5.905611685654857
 21
2.589989354279597
 31
0.0
  0
LINE
  5
DD7F
330
1F
100
AcDbEntity
  8
NETAFIM-L-DETL-PATT-013M
100
AcDbLine
 10
4.472469135654858
 20
2.939989354279597
 30
0.0
 11
4.505611685654859
 21
2.939989354279597
 31
0.0
  0
LINE
  5
DD80
330
1F
100
AcDbEntity
  8
NETAFIM-L-DETL-PATT-013M
100
AcDbLine
 10
4.822469135654859
 20
2.939989354279597
 30
0.0
 11
4.85561168565486
 21
2.939989354279597
 31
0.0
  0
LINE
  5
DD81
330
1F
100
AcDbEntity
  8
NETAFIM-L-DETL-PATT-013M
100
AcDbLine
 10
5.172469135654853
 20
2.939989354279597
 30
0.0
 11
5.205611685654854
 21
2.939989354279597
 31
0.0
  0
LINE
  5
DD82
330
1F
100
AcDbEntity
  8
NETAFIM-L-DETL-PATT-013M
100
AcDbLine
 10
5.522469135654855
 20
2.939989354279597
 30
0.0
 11
5.555611685654856
 21
2.939989354279597
 31
0.0
  0
LINE
  5
DD83
330
1F
100
AcDbEntity
  8
NETAFIM-L-DETL-PATT-013M
100
AcDbLine
 10
4.79903524364759
 20
2.963425387350929
 30
0.0
 11
4.822470565498402
 21
2.939990065500116
 31
0.0
  0
LINE
  5
DD84
330
1F
100
AcDbEntity
  8
NETAFIM-L-DETL-PATT-013M
100
AcDbLine
 10
5.149035351954719
 20
2.613425279043796
 30
0.0
 11
5.172470673805538
 21
2.589989957192982
 31
0.0
  0
LINE
  5
DD85
330
1F
100
AcDbEntity
  8
NETAFIM-L-DETL-PATT-013M
100
AcDbLine
 10
5.149035351954726
 20
2.963425387350929
 30
0.0
 11
5.172470673805538
 21
2.939990065500116
 31
0.0
  0
LINE
  5
DD86
330
1F
100
AcDbEntity
  8
NETAFIM-L-DETL-PATT-013M
100
AcDbLine
 10
5.499035460261854
 20
2.613425279043796
 30
0.0
 11
5.522470782112673
 21
2.589989957192982
 31
0.0
  0
LINE
  5
DD87
330
1F
100
AcDbEntity
  8
NETAFIM-L-DETL-PATT-013M
100
AcDbLine
 10
5.499035460261854
 20
2.963425387350929
 30
0.0
 11
5.522470782112666
 21
2.939990065500116
 31
0.0
  0
LINE
  5
DD88
330
1F
100
AcDbEntity
  8
NETAFIM-L-DETL-PATT-013M
100
AcDbLine
 10
5.849035568568989
 20
2.613425279043796
 30
0.0
 11
5.872470890419801
 21
2.589989957192982
 31
0.0
  0
LINE
  5
DD89
330
1F
100
AcDbEntity
  8
NETAFIM-L-DETL-PATT-013M
100
AcDbLine
 10
4.449035135340455
 20
2.963425387350929
 30
0.0
 11
4.472470457191267
 21
2.939990065500116
 31
0.0
  0
LINE
  5
DD8A
330
1F
100
AcDbEntity
  8
NETAFIM-L-DETL-PATT-013M
100
AcDbLine
 10
4.79903524364759
 20
2.613425279043796
 30
0.0
 11
4.822470565498402
 21
2.589989957192982
 31
0.0
  0
LINE
  5
DD8B
330
1F
100
AcDbEntity
  8
NETAFIM-L-DETL-PATT-013M
100
AcDbLine
 10
5.149033835654858
 20
2.996566854279597
 30
0.0
 11
5.149033835654858
 21
2.963424304279596
 31
0.0
  0
LINE
  5
DD8C
330
1F
100
AcDbEntity
  8
NETAFIM-L-DETL-PATT-013M
100
AcDbLine
 10
5.149033835654858
 20
2.646566854279597
 30
0.0
 11
5.149033835654858
 21
2.613424304279598
 31
0.0
  0
LINE
  5
DD8D
330
1F
100
AcDbEntity
  8
NETAFIM-L-DETL-PATT-013M
100
AcDbLine
 10
5.499033835654859
 20
2.996566854279597
 30
0.0
 11
5.499033835654859
 21
2.963424304279596
 31
0.0
  0
LINE
  5
DD8E
330
1F
100
AcDbEntity
  8
NETAFIM-L-DETL-PATT-013M
100
AcDbLine
 10
5.499033835654859
 20
2.646566854279597
 30
0.0
 11
5.499033835654859
 21
2.613424304279598
 31
0.0
  0
LINE
  5
DD8F
330
1F
100
AcDbEntity
  8
NETAFIM-L-DETL-PATT-013M
100
AcDbLine
 10
5.849033835654854
 20
2.646566854279597
 30
0.0
 11
5.849033835654854
 21
2.613424304279598
 31
0.0
  0
LINE
  5
DD90
330
1F
100
AcDbEntity
  8
NETAFIM-L-DETL-PATT-013M
100
AcDbLine
 10
4.799033835654856
 20
2.996566854279597
 30
0.0
 11
4.799033835654856
 21
2.963424304279596
 31
0.0
  0
LINE
  5
DD91
330
1F
100
AcDbEntity
  8
NETAFIM-L-DETL-PATT-013M
100
AcDbLine
 10
4.799033835654856
 20
2.646566854279597
 30
0.0
 11
4.799033835654856
 21
2.613424304279598
 31
0.0
  0
LINE
  5
DD92
330
1F
100
AcDbEntity
  8
NETAFIM-L-DETL-PATT-013M
100
AcDbLine
 10
4.449033835654855
 20
2.996566854279597
 30
0.0
 11
4.449033835654855
 21
2.963424304279596
 31
0.0
  0
LINE
  5
DD93
330
1F
100
AcDbEntity
  8
NETAFIM-L-DETL-PATT-013M
100
AcDbLine
 10
4.449033835654855
 20
2.646566854279597
 30
0.0
 11
4.449033835654855
 21
2.630858414002084
 31
0.0
  0
LINE
  5
DD94
330
1F
100
AcDbEntity
  8
NETAFIM-L-DETL-PATT-013M
100
AcDbLine
 10
5.172470651954721
 20
3.020003237350932
 30
0.0
 11
5.14903533010391
 21
2.996567915500117
 31
0.0
  0
LINE
  5
DD95
330
1F
100
AcDbEntity
  8
NETAFIM-L-DETL-PATT-013M
100
AcDbLine
 10
4.822470543647586
 20
2.670003129043796
 30
0.0
 11
4.799035221796774
 21
2.646567807192984
 31
0.0
  0
LINE
  5
DD96
330
1F
100
AcDbEntity
  8
NETAFIM-L-DETL-PATT-013M
100
AcDbLine
 10
5.522470760261857
 20
3.020003237350932
 30
0.0
 11
5.499035438411045
 21
2.996567915500117
 31
0.0
  0
LINE
  5
DD97
330
1F
100
AcDbEntity
  8
NETAFIM-L-DETL-PATT-013M
100
AcDbLine
 10
5.172470651954721
 20
2.670003129043798
 30
0.0
 11
5.14903533010391
 21
2.646567807192984
 31
0.0
  0
LINE
  5
DD98
330
1F
100
AcDbEntity
  8
NETAFIM-L-DETL-PATT-013M
100
AcDbLine
 10
5.522470760261857
 20
2.670003129043798
 30
0.0
 11
5.499035438411045
 21
2.646567807192984
 31
0.0
  0
LINE
  5
DD99
330
1F
100
AcDbEntity
  8
NETAFIM-L-DETL-PATT-013M
100
AcDbLine
 10
5.872470868568992
 20
2.670003129043798
 30
0.0
 11
5.849035546718173
 21
2.646567807192984
 31
0.0
  0
LINE
  5
DD9A
330
1F
100
AcDbEntity
  8
NETAFIM-L-DETL-PATT-013M
100
AcDbLine
 10
4.822470543647586
 20
3.020003237350932
 30
0.0
 11
4.799035221796774
 21
2.996567915500117
 31
0.0
  0
LINE
  5
DD9B
330
1F
100
AcDbEntity
  8
NETAFIM-L-DETL-PATT-013M
100
AcDbLine
 10
4.472470435340458
 20
2.670003129043796
 30
0.0
 11
4.449035113489639
 21
2.646567807192984
 31
0.0
  0
LINE
  5
DD9C
330
1F
100
AcDbEntity
  8
NETAFIM-L-DETL-PATT-013M
100
AcDbLine
 10
4.472470435340458
 20
3.020003237350932
 30
0.0
 11
4.449035113489639
 21
2.996567915500117
 31
0.0
  0
LINE
  5
DD9D
330
1F
100
AcDbEntity
  8
NETAFIM-L-DETL-PATT-013M
100
AcDbLine
 10
5.905611335654857
 20
2.670002154279598
 30
0.0
 11
5.872468785654856
 21
2.670002154279598
 31
0.0
  0
LINE
  5
DD9E
330
1F
100
AcDbEntity
  8
NETAFIM-L-DETL-PATT-013M
100
AcDbLine
 10
5.555611335654855
 20
2.670002154279598
 30
0.0
 11
5.522468785654854
 21
2.670002154279598
 31
0.0
  0
LINE
  5
DD9F
330
1F
100
AcDbEntity
  8
NETAFIM-L-DETL-PATT-013M
100
AcDbLine
 10
5.205611335654861
 20
2.670002154279598
 30
0.0
 11
5.17246878565486
 21
2.670002154279598
 31
0.0
  0
LINE
  5
DDA0
330
1F
100
AcDbEntity
  8
NETAFIM-L-DETL-PATT-013M
100
AcDbLine
 10
4.85561133565486
 20
2.670002154279598
 30
0.0
 11
4.822468785654859
 21
2.670002154279598
 31
0.0
  0
LINE
  5
DDA1
330
1F
100
AcDbEntity
  8
NETAFIM-L-DETL-PATT-013M
100
AcDbLine
 10
4.505611335654858
 20
2.670002154279598
 30
0.0
 11
4.472468785654857
 21
2.670002154279598
 31
0.0
  0
LINE
  5
DDA2
330
1F
100
AcDbEntity
  8
NETAFIM-L-DETL-PATT-013M
100
AcDbLine
 10
5.555611335654855
 20
3.020002154279596
 30
0.0
 11
5.522468785654854
 21
3.020002154279596
 31
0.0
  0
LINE
  5
DDA3
330
1F
100
AcDbEntity
  8
NETAFIM-L-DETL-PATT-013M
100
AcDbLine
 10
5.205611335654861
 20
3.020002154279596
 30
0.0
 11
5.17246878565486
 21
3.020002154279596
 31
0.0
  0
LINE
  5
DDA4
330
1F
100
AcDbEntity
  8
NETAFIM-L-DETL-PATT-013M
100
AcDbLine
 10
4.85561133565486
 20
3.020002154279596
 30
0.0
 11
4.822468785654859
 21
3.020002154279596
 31
0.0
  0
LINE
  5
DDA5
330
1F
100
AcDbEntity
  8
NETAFIM-L-DETL-PATT-013M
100
AcDbLine
 10
4.505611335654858
 20
3.020002154279596
 30
0.0
 11
4.472468785654857
 21
3.020002154279596
 31
0.0
  0
LINE
  5
DDA6
330
1F
100
AcDbEntity
  8
NETAFIM-L-DETL-PATT-013M
100
AcDbLine
 10
5.229048151954724
 20
2.646567829043797
 30
0.0
 11
5.205612830103905
 21
2.67000315089461
 31
0.0
  0
LINE
  5
DDA7
330
1F
100
AcDbEntity
  8
NETAFIM-L-DETL-PATT-013M
100
AcDbLine
 10
4.879048043647589
 20
2.996567937350929
 30
0.0
 11
4.855612721796777
 21
3.020003259201745
 31
0.0
  0
LINE
  5
DDA8
330
1F
100
AcDbEntity
  8
NETAFIM-L-DETL-PATT-013M
100
AcDbLine
 10
4.879048043647589
 20
2.646567829043797
 30
0.0
 11
4.855612721796777
 21
2.670003150894612
 31
0.0
  0
LINE
  5
DDA9
330
1F
100
AcDbEntity
  8
NETAFIM-L-DETL-PATT-013M
100
AcDbLine
 10
4.529047935340454
 20
2.996567937350929
 30
0.0
 11
4.505612613489642
 21
3.020003259201745
 31
0.0
  0
LINE
  5
DDAA
330
1F
100
AcDbEntity
  8
NETAFIM-L-DETL-PATT-013M
100
AcDbLine
 10
4.529047935340454
 20
2.646567829043797
 30
0.0
 11
4.505612613489642
 21
2.67000315089461
 31
0.0
  0
LINE
  5
DDAB
330
1F
100
AcDbEntity
  8
NETAFIM-L-DETL-PATT-013M
100
AcDbLine
 10
5.579048260261853
 20
2.646567829043797
 30
0.0
 11
5.555612938411041
 21
2.67000315089461
 31
0.0
  0
LINE
  5
DDAC
330
1F
100
AcDbEntity
  8
NETAFIM-L-DETL-PATT-013M
100
AcDbLine
 10
5.229048151954717
 20
2.996567937350929
 30
0.0
 11
5.205612830103905
 21
3.020003259201745
 31
0.0
  0
LINE
  5
DDAD
330
1F
100
AcDbEntity
  8
NETAFIM-L-DETL-PATT-013M
100
AcDbLine
 10
5.929048368568988
 20
2.646567829043797
 30
0.0
 11
5.905613046718176
 21
2.67000315089461
 31
0.0
  0
LINE
  5
DDAE
330
1F
100
AcDbEntity
  8
NETAFIM-L-DETL-PATT-013M
100
AcDbLine
 10
5.579048260261853
 20
2.996567937350929
 30
0.0
 11
5.555612938411041
 21
3.020003259201745
 31
0.0
  0
HATCH
  5
DE39
330
1F
100
AcDbEntity
  8
NETAFIM-L-DETL-013M
100
AcDbHatch
 10
0.0
 20
0.0
 30
0.0
210
0.0
220
0.0
230
1.0
  2
SOLID
 70
     1
 71
     0
 91
       12
 92
        7
 72
     1
 73
     1
 93
        3
 10
7.602780123719746
 20
0.8499925869564171
 42
1.407273687863683
 10
7.726610455730011
 20
0.8499925869564171
 42
0.0
 10
7.664695289724882
 20
0.9958555772699755
 42
0.0
 97
        0
 92
        7
 72
     1
 73
     1
 93
        3
 10
7.748564270341027
 20
1.082510251717265
 42
0.0
 10
7.709189270341028
 20
0.989748564812956
 42
1.407273687863691
 10
7.787939270341027
 20
0.989748564812956
 42
0.0
 97
        0
 92
        7
 72
     0
 73
     1
 93
       10
 10
7.891403918155887
 20
0.9899098414699132
 10
7.924014490154156
 20
0.9049563969638123
 10
7.973964490154152
 20
0.9049563969638123
 10
7.996479131873478
 20
1.065156396963812
 10
7.946529131873482
 20
1.065156396963812
 10
7.934589703871743
 20
0.9802029524577111
 10
7.901979131873481
 20
1.065156396963812
 10
7.852029131873479
 20
1.065156396963812
 10
7.829514490154153
 20
0.9049563969638123
 10
7.879464490154155
 20
0.9049563969638123
 97
        0
 92
        7
 72
     0
 73
     1
 93
       12
 10
8.051780241607751
 20
0.964892371824396
 10
8.0922763860409
 20
0.964892371824396
 10
8.098084469672649
 20
1.006219034242876
 10
8.057588325239514
 20
1.006219034242876
 10
8.059780301579635
 20
1.021815756325556
 10
8.103787503302847
 20
1.021815756325556
 10
8.109878633114682
 20
1.065156396963812
 10
8.013129131873476
 20
1.065156396963812
 10
7.99061449015415
 20
0.9049563969638123
 10
8.087363991395363
 20
0.9049563969638123
 10
8.093438897252269
 20
0.9481815981643819
 10
8.049431695529058
 20
0.9481815981643819
 97
        0
 92
        7
 72
     0
 73
     1
 93
        8
 10
8.131801491395364
 20
0.9049563969638123
 10
8.181751491395367
 20
0.9049563969638123
 10
8.19819122725778
 20
1.021931195763242
 10
8.228228727257778
 20
1.021931195763242
 10
8.234303633114684
 20
1.065156396963812
 10
8.124278633114691
 20
1.065156396963812
 10
8.118203727257778
 20
1.021931195763242
 10
8.148241227257777
 20
1.021931195763242
 97
        0
 92
        7
 72
     0
 73
     1
 93
        8
 10
8.195267221775942
 20
0.9049563969638123
 10
8.249267221775944
 20
0.9049563969638123
 10
8.257971398315639
 20
0.9260845390244272
 10
8.30078500150622
 20
0.9260845390244272
 10
8.301852988542357
 20
0.9049563969638123
 10
8.353602988542355
 20
0.9049563969638123
 10
8.332512258428856
 20
1.065156396963812
 10
8.275139995386105
 20
1.065156396963812
 97
        0
 92
       22
 72
     0
 73
     1
 93
        3
 10
8.273959090316409
 20
0.964892371824396
 10
8.296105958546789
 20
1.018650722891314
 10
8.298823340030629
 20
0.964892371824396
 97
        0
 92
        7
 72
     0
 73
     1
 93
       10
 10
8.428384722948685
 20
0.964892371824396
 10
8.46888086738182
 20
0.964892371824396
 10
8.474688951013582
 20
1.006219034242876
 10
8.434192806580441
 20
1.006219034242876
 10
8.436384782920562
 20
1.021815756325556
 10
8.48039198464378
 20
1.021815756325556
 10
8.486483114455616
 20
1.065156396963812
 10
8.389600912732397
 20
1.065156396963812
 10
8.367086271013072
 20
0.9049563969638123
 10
8.419961271013072
 20
0.9049563969638123
 97
        0
 92
        7
 72
     0
 73
     1
 93
        4
 10
8.554433114455612
 20
1.065156396963812
 10
8.501558114455612
 20
1.065156396963812
 10
8.479043472736293
 20
0.9049563969638123
 10
8.531918472736293
 20
0.9049563969638123
 97
        0
 92
        7
 72
     0
 73
     1
 93
       13
 10
8.614590601815542
 20
0.9837242017944456
 10
8.624960580050974
 20
0.9049563969638123
 10
8.659362041544525
 20
0.9049563969638123
 10
8.689742683095659
 20
0.990284002979326
 10
8.689742683095659
 20
0.9049563969638123
 10
8.737892683095658
 20
0.9049563969638123
 10
8.737892683095658
 20
1.065156396963812
 10
8.68199931585714
 20
1.065156396963812
 10
8.653007043797707
 20
0.983728190004518
 10
8.642286816977453
 20
1.065156396963812
 10
8.588440908032573
 20
1.065156396963812
 10
8.54250429723401
 20
0.9049563969638123
 10
8.592004297234012
 20
0.9049563969638123
 97
        0
 92
        7
 72
     0
 73
     1
 93
        8
 10
8.779631383606684
 20
1.065156396963812
 10
8.754881383606679
 20
1.065156396963812
 10
8.754881383606679
 20
1.060431396963812
 10
8.76388138360668
 20
1.060431396963812
 10
8.76388138360668
 20
1.035456396963812
 10
8.770631383606684
 20
1.035456396963812
 10
8.770631383606684
 20
1.060431396963812
 10
8.779631383606684
 20
1.060431396963812
 97
        0
 92
        7
 72
     0
 73
     1
 93
       13
 10
8.794481383606687
 20
1.065156396963812
 10
8.783456383606683
 20
1.065156396963812
 10
8.783456383606683
 20
1.035456396963812
 10
8.79020638360668
 20
1.035456396963812
 10
8.79020638360668
 20
1.056896684993619
 10
8.798868883606679
 20
1.035456396963812
 10
8.803368883606687
 20
1.035456396963812
 10
8.812031383606687
 20
1.056896684993618
 10
8.812031383606687
 20
1.035456396963812
 10
8.818781383606683
 20
1.035456396963812
 10
8.818781383606683
 20
1.065156396963812
 10
8.80775638360668
 20
1.065156396963812
 10
8.801118883606683
 20
1.048728124317597
 97
        0
 75
     0
 76
     1
 47
0.0019728894204142
 98
       12
 10
7.650372135110636
 20
0.8514497937843756
 10
7.756056493365356
 20
0.9855076312385282
 10
7.869733788517152
 20
0.9784052284270474
 10
8.038473522372612
 20
0.9784052284270474
 10
8.165472374982265
 20
0.9766296287314384
 10
8.249842238882038
 20
0.9535468226159089
 10
8.249842238882038
 20
0.9535468226159089
 10
8.407924728587993
 20
0.9650882246664123
 10
8.522490125147946
 20
0.9668638263765441
 10
8.607748096511791
 20
0.9899466324920727
 10
8.768494893470169
 20
1.063634052092205
 10
8.785368868672492
 20
1.06452185194001
450
        0
451
        0
460
0.0
461
0.0
452
        1
462
1.0
453
        2
463
0.0
 63
     5
421
      255
463
1.0
 63
     7
421
 16777215
470
LINEAR
1001
ACAD
1010
0.0
1020
0.0
1030
0.0
  0
LWPOLYLINE
  5
DE3A
330
1F
100
AcDbEntity
  8
NETAFIM-L-DETL-013M
100
AcDbPolyline
 90
        3
 70
     1
 43
0.0
 10
7.748564270341027
 20
1.082510251717265
 10
7.709189270341028
 20
0.989748564812956
 42
1.407273687863686
 10
7.787939270341027
 20
0.9897485648129551
  0
LWPOLYLINE
  5
DE3B
330
1F
100
AcDbEntity
  8
NETAFIM-L-DETL-013M
100
AcDbPolyline
 90
        3
 70
     1
 43
0.0
 10
7.664695289724882
 20
0.9958555772699755
 10
7.602780123719746
 20
0.8499925869564171
 42
1.407273687863686
 10
7.726610455730011
 20
0.8499925869564171
  0
LWPOLYLINE
  5
DE3C
330
1F
100
AcDbEntity
  8
NETAFIM-L-DETL-013M
100
AcDbPolyline
 90
        2
 70
     0
 43
0.0
 10
7.852029131873479
 20
1.065156396963812
 10
7.901979131873481
 20
1.065156396963812
  0
LWPOLYLINE
  5
DE3D
330
1F
100
AcDbEntity
  8
NETAFIM-L-DETL-013M
100
AcDbPolyline
 90
        2
 70
     0
 43
0.0
 10
7.946529131873482
 20
1.065156396963812
 10
7.996479131873478
 20
1.065156396963812
  0
LWPOLYLINE
  5
DE3E
330
1F
100
AcDbEntity
  8
NETAFIM-L-DETL-013M
100
AcDbPolyline
 90
        2
 70
     0
 43
0.0
 10
8.124278633114691
 20
1.065156396963812
 10
8.234303633114684
 20
1.065156396963812
  0
LWPOLYLINE
  5
DE3F
330
1F
100
AcDbEntity
  8
NETAFIM-L-DETL-013M
100
AcDbPolyline
 90
        2
 70
     0
 43
0.0
 10
8.275139995386105
 20
1.065156396963812
 10
8.332512258428856
 20
1.065156396963812
  0
LWPOLYLINE
  5
DE40
330
1F
100
AcDbEntity
  8
NETAFIM-L-DETL-013M
100
AcDbPolyline
 90
        2
 70
     0
 43
0.0
 10
8.389600912732397
 20
1.065156396963812
 10
8.486483114455616
 20
1.065156396963812
  0
LWPOLYLINE
  5
DE41
330
1F
100
AcDbEntity
  8
NETAFIM-L-DETL-013M
100
AcDbPolyline
 90
        2
 70
     0
 43
0.0
 10
8.501558114455612
 20
1.065156396963812
 10
8.554433114455612
 20
1.065156396963812
  0
LWPOLYLINE
  5
DE42
330
1F
100
AcDbEntity
  8
NETAFIM-L-DETL-013M
100
AcDbPolyline
 90
        2
 70
     0
 43
0.0
 10
8.588440908032573
 20
1.065156396963812
 10
8.642286816977453
 20
1.065156396963812
  0
LWPOLYLINE
  5
DE43
330
1F
100
AcDbEntity
  8
NETAFIM-L-DETL-013M
100
AcDbPolyline
 90
        2
 70
     0
 43
0.0
 10
8.68199931585714
 20
1.065156396963812
 10
8.737892683095658
 20
1.065156396963812
  0
LWPOLYLINE
  5
DE44
330
1F
100
AcDbEntity
  8
NETAFIM-L-DETL-013M
100
AcDbPolyline
 90
        2
 70
     0
 43
0.0
 10
8.754881383606679
 20
1.065156396963812
 10
8.779631383606684
 20
1.065156396963812
  0
LWPOLYLINE
  5
DE45
330
1F
100
AcDbEntity
  8
NETAFIM-L-DETL-013M
100
AcDbPolyline
 90
        2
 70
     0
 43
0.0
 10
8.783456383606683
 20
1.065156396963812
 10
8.794481383606687
 20
1.065156396963812
  0
LWPOLYLINE
  5
DE46
330
1F
100
AcDbEntity
  8
NETAFIM-L-DETL-013M
100
AcDbPolyline
 90
        2
 70
     0
 43
0.0
 10
8.80775638360668
 20
1.065156396963812
 10
8.818781383606683
 20
1.065156396963812
  0
LWPOLYLINE
  5
DE47
330
1F
100
AcDbEntity
  8
NETAFIM-L-DETL-013M
100
AcDbPolyline
 90
        2
 70
     0
 43
0.0
 10
8.76388138360668
 20
1.035456396963812
 10
8.770631383606684
 20
1.035456396963812
  0
LWPOLYLINE
  5
DE48
330
1F
100
AcDbEntity
  8
NETAFIM-L-DETL-013M
100
AcDbPolyline
 90
        2
 70
     0
 43
0.0
 10
8.783456383606683
 20
1.035456396963812
 10
8.79020638360668
 20
1.035456396963812
  0
LWPOLYLINE
  5
DE49
330
1F
100
AcDbEntity
  8
NETAFIM-L-DETL-013M
100
AcDbPolyline
 90
        2
 70
     0
 43
0.0
 10
8.798868883606679
 20
1.035456396963812
 10
8.803368883606687
 20
1.035456396963812
  0
LWPOLYLINE
  5
DE4A
330
1F
100
AcDbEntity
  8
NETAFIM-L-DETL-013M
100
AcDbPolyline
 90
        2
 70
     0
 43
0.0
 10
8.812031383606687
 20
1.035456396963812
 10
8.818781383606683
 20
1.035456396963812
  0
LWPOLYLINE
  5
DE4B
330
1F
100
AcDbEntity
  8
NETAFIM-L-DETL-013M
100
AcDbPolyline
 90
        2
 70
     0
 43
0.0
 10
7.829514490154153
 20
0.9049563969638123
 10
7.879464490154155
 20
0.9049563969638123
  0
LWPOLYLINE
  5
DE4C
330
1F
100
AcDbEntity
  8
NETAFIM-L-DETL-013M
100
AcDbPolyline
 90
        2
 70
     0
 43
0.0
 10
7.924014490154156
 20
0.9049563969638123
 10
7.973964490154152
 20
0.9049563969638123
  0
LWPOLYLINE
  5
DE4D
330
1F
100
AcDbEntity
  8
NETAFIM-L-DETL-013M
100
AcDbPolyline
 90
        2
 70
     0
 43
0.0
 10
7.99061449015415
 20
0.9049563969638123
 10
8.087363991395363
 20
0.9049563969638123
  0
LWPOLYLINE
  5
DE4E
330
1F
100
AcDbEntity
  8
NETAFIM-L-DETL-013M
100
AcDbPolyline
 90
        2
 70
     0
 43
0.0
 10
8.131801491395364
 20
0.9049563969638123
 10
8.181751491395367
 20
0.9049563969638123
  0
LWPOLYLINE
  5
DE4F
330
1F
100
AcDbEntity
  8
NETAFIM-L-DETL-013M
100
AcDbPolyline
 90
        2
 70
     0
 43
0.0
 10
8.195267221775942
 20
0.9049563969638123
 10
8.249267221775944
 20
0.9049563969638123
  0
LWPOLYLINE
  5
DE50
330
1F
100
AcDbEntity
  8
NETAFIM-L-DETL-013M
100
AcDbPolyline
 90
        2
 70
     0
 43
0.0
 10
8.301852988542357
 20
0.9049563969638123
 10
8.353602988542355
 20
0.9049563969638123
  0
LWPOLYLINE
  5
DE51
330
1F
100
AcDbEntity
  8
NETAFIM-L-DETL-013M
100
AcDbPolyline
 90
        2
 70
     0
 43
0.0
 10
8.367086271013072
 20
0.9049563969638123
 10
8.419961271013072
 20
0.9049563969638123
  0
LWPOLYLINE
  5
DE52
330
1F
100
AcDbEntity
  8
NETAFIM-L-DETL-013M
100
AcDbPolyline
 90
        2
 70
     0
 43
0.0
 10
8.479043472736293
 20
0.9049563969638123
 10
8.531918472736293
 20
0.9049563969638123
  0
LWPOLYLINE
  5
DE53
330
1F
100
AcDbEntity
  8
NETAFIM-L-DETL-013M
100
AcDbPolyline
 90
        2
 70
     0
 43
0.0
 10
8.54250429723401
 20
0.9049563969638123
 10
8.592004297234012
 20
0.9049563969638123
  0
LWPOLYLINE
  5
DE54
330
1F
100
AcDbEntity
  8
NETAFIM-L-DETL-013M
100
AcDbPolyline
 90
        2
 70
     0
 43
0.0
 10
8.624960580050974
 20
0.9049563969638123
 10
8.659362041544525
 20
0.9049563969638123
  0
LWPOLYLINE
  5
DE55
330
1F
100
AcDbEntity
  8
NETAFIM-L-DETL-013M
100
AcDbPolyline
 90
        2
 70
     0
 43
0.0
 10
8.689742683095659
 20
0.9049563969638123
 10
8.737892683095658
 20
0.9049563969638123
  0
LWPOLYLINE
  5
DE56
330
1F
100
AcDbEntity
  8
NETAFIM-L-DETL-013M
100
AcDbPolyline
 90
        2
 70
     0
 43
0.0
 10
7.829514490154153
 20
0.9049563969638123
 10
7.852029131873479
 20
1.065156396963812
  0
LWPOLYLINE
  5
DE57
330
1F
100
AcDbEntity
  8
NETAFIM-L-DETL-013M
100
AcDbPolyline
 90
        2
 70
     0
 43
0.0
 10
7.879464490154155
 20
0.9049563969638123
 10
7.891403918155887
 20
0.9899098414699132
  0
LWPOLYLINE
  5
DE58
330
1F
100
AcDbEntity
  8
NETAFIM-L-DETL-013M
100
AcDbPolyline
 90
        2
 70
     0
 43
0.0
 10
7.934589703871743
 20
0.9802029524577111
 10
7.901979131873481
 20
1.065156396963812
  0
LWPOLYLINE
  5
DE59
330
1F
100
AcDbEntity
  8
NETAFIM-L-DETL-013M
100
AcDbPolyline
 90
        2
 70
     0
 43
0.0
 10
7.934589703871743
 20
0.9802029524577111
 10
7.946529131873482
 20
1.065156396963812
  0
LWPOLYLINE
  5
DE5A
330
1F
100
AcDbEntity
  8
NETAFIM-L-DETL-013M
100
AcDbPolyline
 90
        2
 70
     0
 43
0.0
 10
7.924014490154156
 20
0.9049563969638123
 10
7.891403918155887
 20
0.9899098414699132
  0
LWPOLYLINE
  5
DE5B
330
1F
100
AcDbEntity
  8
NETAFIM-L-DETL-013M
100
AcDbPolyline
 90
        2
 70
     0
 43
0.0
 10
7.973964490154152
 20
0.9049563969638123
 10
7.996479131873478
 20
1.065156396963812
  0
LWPOLYLINE
  5
DE5C
330
1F
100
AcDbEntity
  8
NETAFIM-L-DETL-013M
100
AcDbPolyline
 90
        2
 70
     0
 43
0.0
 10
7.99061449015415
 20
0.9049563969638123
 10
8.013129131873476
 20
1.065156396963812
  0
LWPOLYLINE
  5
DE5D
330
1F
100
AcDbEntity
  8
NETAFIM-L-DETL-013M
100
AcDbPolyline
 90
        2
 70
     0
 43
0.0
 10
8.087363991395363
 20
0.9049563969638123
 10
8.093438897252269
 20
0.9481815981643819
  0
LWPOLYLINE
  5
DE5E
330
1F
100
AcDbEntity
  8
NETAFIM-L-DETL-013M
100
AcDbPolyline
 90
        2
 70
     0
 43
0.0
 10
8.103787503302847
 20
1.021815756325556
 10
8.109878633114682
 20
1.065156396963812
  0
LWPOLYLINE
  5
DE5F
330
1F
100
AcDbEntity
  8
NETAFIM-L-DETL-013M
100
AcDbPolyline
 90
        2
 70
     0
 43
0.0
 10
8.049431695529058
 20
0.9481815981643819
 10
8.051780241607751
 20
0.964892371824396
  0
LWPOLYLINE
  5
DE60
330
1F
100
AcDbEntity
  8
NETAFIM-L-DETL-013M
100
AcDbPolyline
 90
        2
 70
     0
 43
0.0
 10
8.057588325239514
 20
1.006219034242876
 10
8.059780301579635
 20
1.021815756325556
  0
LWPOLYLINE
  5
DE61
330
1F
100
AcDbEntity
  8
NETAFIM-L-DETL-013M
100
AcDbPolyline
 90
        2
 70
     0
 43
0.0
 10
8.0922763860409
 20
0.964892371824396
 10
8.098084469672649
 20
1.006219034242876
  0
LWPOLYLINE
  5
DE62
330
1F
100
AcDbEntity
  8
NETAFIM-L-DETL-013M
100
AcDbPolyline
 90
        2
 70
     0
 43
0.0
 10
8.118203727257778
 20
1.021931195763242
 10
8.124278633114691
 20
1.065156396963812
  0
LWPOLYLINE
  5
DE63
330
1F
100
AcDbEntity
  8
NETAFIM-L-DETL-013M
100
AcDbPolyline
 90
        2
 70
     0
 43
0.0
 10
8.228228727257778
 20
1.021931195763242
 10
8.234303633114684
 20
1.065156396963812
  0
LWPOLYLINE
  5
DE64
330
1F
100
AcDbEntity
  8
NETAFIM-L-DETL-013M
100
AcDbPolyline
 90
        2
 70
     0
 43
0.0
 10
8.118203727257778
 20
1.021931195763242
 10
8.148241227257777
 20
1.021931195763242
  0
LWPOLYLINE
  5
DE65
330
1F
100
AcDbEntity
  8
NETAFIM-L-DETL-013M
100
AcDbPolyline
 90
        2
 70
     0
 43
0.0
 10
8.19819122725778
 20
1.021931195763242
 10
8.228228727257778
 20
1.021931195763242
  0
LWPOLYLINE
  5
DE66
330
1F
100
AcDbEntity
  8
NETAFIM-L-DETL-013M
100
AcDbPolyline
 90
        2
 70
     0
 43
0.0
 10
8.131801491395364
 20
0.9049563969638123
 10
8.148241227257777
 20
1.021931195763242
  0
LWPOLYLINE
  5
DE67
330
1F
100
AcDbEntity
  8
NETAFIM-L-DETL-013M
100
AcDbPolyline
 90
        2
 70
     0
 43
0.0
 10
8.181751491395367
 20
0.9049563969638123
 10
8.19819122725778
 20
1.021931195763242
  0
LWPOLYLINE
  5
DE68
330
1F
100
AcDbEntity
  8
NETAFIM-L-DETL-013M
100
AcDbPolyline
 90
        2
 70
     0
 43
0.0
 10
8.103787503302847
 20
1.021815756325556
 10
8.059780301579635
 20
1.021815756325556
  0
LWPOLYLINE
  5
DE69
330
1F
100
AcDbEntity
  8
NETAFIM-L-DETL-013M
100
AcDbPolyline
 90
        2
 70
     0
 43
0.0
 10
8.093438897252269
 20
0.9481815981643819
 10
8.049431695529058
 20
0.9481815981643819
  0
LWPOLYLINE
  5
DE6A
330
1F
100
AcDbEntity
  8
NETAFIM-L-DETL-013M
100
AcDbPolyline
 90
        2
 70
     0
 43
0.0
 10
8.0922763860409
 20
0.964892371824396
 10
8.051780241607751
 20
0.964892371824396
  0
LWPOLYLINE
  5
DE6B
330
1F
100
AcDbEntity
  8
NETAFIM-L-DETL-013M
100
AcDbPolyline
 90
        2
 70
     0
 43
0.0
 10
8.098084469672649
 20
1.006219034242876
 10
8.057588325239514
 20
1.006219034242876
  0
LWPOLYLINE
  5
DE6C
330
1F
100
AcDbEntity
  8
NETAFIM-L-DETL-013M
100
AcDbPolyline
 90
        2
 70
     0
 43
0.0
 10
8.298823340030629
 20
0.964892371824396
 10
8.273959090316409
 20
0.964892371824396
  0
LWPOLYLINE
  5
DE6D
330
1F
100
AcDbEntity
  8
NETAFIM-L-DETL-013M
100
AcDbPolyline
 90
        2
 70
     0
 43
0.0
 10
8.367086271013072
 20
0.9049563969638123
 10
8.389600912732397
 20
1.065156396963812
  0
LWPOLYLINE
  5
DE6E
330
1F
100
AcDbEntity
  8
NETAFIM-L-DETL-013M
100
AcDbPolyline
 90
        2
 70
     0
 43
0.0
 10
8.479043472736293
 20
0.9049563969638123
 10
8.501558114455612
 20
1.065156396963812
  0
LWPOLYLINE
  5
DE6F
330
1F
100
AcDbEntity
  8
NETAFIM-L-DETL-013M
100
AcDbPolyline
 90
        2
 70
     0
 43
0.0
 10
8.48039198464378
 20
1.021815756325556
 10
8.486483114455616
 20
1.065156396963812
  0
LWPOLYLINE
  5
DE70
330
1F
100
AcDbEntity
  8
NETAFIM-L-DETL-013M
100
AcDbPolyline
 90
        2
 70
     0
 43
0.0
 10
8.195267221775942
 20
0.9049563969638123
 10
8.275139995386105
 20
1.065156396963812
  0
LWPOLYLINE
  5
DE71
330
1F
100
AcDbEntity
  8
NETAFIM-L-DETL-013M
100
AcDbPolyline
 90
        2
 70
     0
 43
0.0
 10
8.249267221775944
 20
0.9049563969638123
 10
8.257971398315639
 20
0.9260845390244272
  0
LWPOLYLINE
  5
DE72
330
1F
100
AcDbEntity
  8
NETAFIM-L-DETL-013M
100
AcDbPolyline
 90
        2
 70
     0
 43
0.0
 10
8.273959090316409
 20
0.964892371824396
 10
8.296105958546789
 20
1.018650722891314
  0
LWPOLYLINE
  5
DE73
330
1F
100
AcDbEntity
  8
NETAFIM-L-DETL-013M
100
AcDbPolyline
 90
        2
 70
     0
 43
0.0
 10
8.353602988542355
 20
0.9049563969638123
 10
8.332512258428856
 20
1.065156396963812
  0
LWPOLYLINE
  5
DE74
330
1F
100
AcDbEntity
  8
NETAFIM-L-DETL-013M
100
AcDbPolyline
 90
        2
 70
     0
 43
0.0
 10
8.301852988542357
 20
0.9049563969638123
 10
8.30078500150622
 20
0.9260845390244272
  0
LWPOLYLINE
  5
DE75
330
1F
100
AcDbEntity
  8
NETAFIM-L-DETL-013M
100
AcDbPolyline
 90
        2
 70
     0
 43
0.0
 10
8.298823340030629
 20
0.964892371824396
 10
8.296105958546789
 20
1.018650722891314
  0
LWPOLYLINE
  5
DE76
330
1F
100
AcDbEntity
  8
NETAFIM-L-DETL-013M
100
AcDbPolyline
 90
        2
 70
     0
 43
0.0
 10
8.46888086738182
 20
0.964892371824396
 10
8.474688951013582
 20
1.006219034242876
  0
LWPOLYLINE
  5
DE77
330
1F
100
AcDbEntity
  8
NETAFIM-L-DETL-013M
100
AcDbPolyline
 90
        2
 70
     0
 43
0.0
 10
8.474688951013582
 20
1.006219034242876
 10
8.434192806580441
 20
1.006219034242876
  0
LWPOLYLINE
  5
DE78
330
1F
100
AcDbEntity
  8
NETAFIM-L-DETL-013M
100
AcDbPolyline
 90
        2
 70
     0
 43
0.0
 10
8.46888086738182
 20
0.964892371824396
 10
8.428384722948685
 20
0.964892371824396
  0
LWPOLYLINE
  5
DE79
330
1F
100
AcDbEntity
  8
NETAFIM-L-DETL-013M
100
AcDbPolyline
 90
        2
 70
     0
 43
0.0
 10
8.419961271013072
 20
0.9049563969638123
 10
8.428384722948685
 20
0.964892371824396
  0
LWPOLYLINE
  5
DE7A
330
1F
100
AcDbEntity
  8
NETAFIM-L-DETL-013M
100
AcDbPolyline
 90
        2
 70
     0
 43
0.0
 10
8.434192806580441
 20
1.006219034242876
 10
8.436384782920562
 20
1.021815756325556
  0
LWPOLYLINE
  5
DE7B
330
1F
100
AcDbEntity
  8
NETAFIM-L-DETL-013M
100
AcDbPolyline
 90
        2
 70
     0
 43
0.0
 10
8.257971398315639
 20
0.9260845390244272
 10
8.30078500150622
 20
0.9260845390244272
  0
LWPOLYLINE
  5
DE7C
330
1F
100
AcDbEntity
  8
NETAFIM-L-DETL-013M
100
AcDbPolyline
 90
        2
 70
     0
 43
0.0
 10
8.48039198464378
 20
1.021815756325556
 10
8.436384782920562
 20
1.021815756325556
  0
LWPOLYLINE
  5
DE7D
330
1F
100
AcDbEntity
  8
NETAFIM-L-DETL-013M
100
AcDbPolyline
 90
        2
 70
     0
 43
0.0
 10
8.653007043797707
 20
0.983728190004518
 10
8.642286816977453
 20
1.065156396963812
  0
LWPOLYLINE
  5
DE7E
330
1F
100
AcDbEntity
  8
NETAFIM-L-DETL-013M
100
AcDbPolyline
 90
        2
 70
     0
 43
0.0
 10
8.624960580050974
 20
0.9049563969638123
 10
8.614590601815542
 20
0.9837242017944456
  0
LWPOLYLINE
  5
DE7F
330
1F
100
AcDbEntity
  8
NETAFIM-L-DETL-013M
100
AcDbPolyline
 90
        2
 70
     0
 43
0.0
 10
8.689742683095659
 20
0.9049563969638123
 10
8.689742683095659
 20
0.990284002979326
  0
LWPOLYLINE
  5
DE80
330
1F
100
AcDbEntity
  8
NETAFIM-L-DETL-013M
100
AcDbPolyline
 90
        2
 70
     0
 43
0.0
 10
8.54250429723401
 20
0.9049563969638123
 10
8.588440908032573
 20
1.065156396963812
  0
LWPOLYLINE
  5
DE81
330
1F
100
AcDbEntity
  8
NETAFIM-L-DETL-013M
100
AcDbPolyline
 90
        2
 70
     0
 43
0.0
 10
8.592004297234012
 20
0.9049563969638123
 10
8.614590601815542
 20
0.9837242017944456
  0
LWPOLYLINE
  5
DE82
330
1F
100
AcDbEntity
  8
NETAFIM-L-DETL-013M
100
AcDbPolyline
 90
        2
 70
     0
 43
0.0
 10
8.653007043797707
 20
0.983728190004518
 10
8.68199931585714
 20
1.065156396963812
  0
LWPOLYLINE
  5
DE83
330
1F
100
AcDbEntity
  8
NETAFIM-L-DETL-013M
100
AcDbPolyline
 90
        2
 70
     0
 43
0.0
 10
8.659362041544525
 20
0.9049563969638132
 10
8.689742683095659
 20
0.990284002979326
  0
LWPOLYLINE
  5
DE84
330
1F
100
AcDbEntity
  8
NETAFIM-L-DETL-013M
100
AcDbPolyline
 90
        2
 70
     0
 43
0.0
 10
8.013129131873476
 20
1.065156396963812
 10
8.109878633114682
 20
1.065156396963812
  0
LWPOLYLINE
  5
DE85
330
1F
100
AcDbEntity
  8
NETAFIM-L-DETL-013M
100
AcDbPolyline
 90
        2
 70
     0
 43
0.0
 10
8.754881383606679
 20
1.065156396963812
 10
8.754881383606679
 20
1.060431396963812
  0
LWPOLYLINE
  5
DE86
330
1F
100
AcDbEntity
  8
NETAFIM-L-DETL-013M
100
AcDbPolyline
 90
        2
 70
     0
 43
0.0
 10
8.779631383606684
 20
1.065156396963812
 10
8.779631383606684
 20
1.060431396963812
  0
LWPOLYLINE
  5
DE87
330
1F
100
AcDbEntity
  8
NETAFIM-L-DETL-013M
100
AcDbPolyline
 90
        2
 70
     0
 43
0.0
 10
8.783456383606683
 20
1.065156396963812
 10
8.783456383606683
 20
1.035456396963812
  0
LWPOLYLINE
  5
DE88
330
1F
100
AcDbEntity
  8
NETAFIM-L-DETL-013M
100
AcDbPolyline
 90
        2
 70
     0
 43
0.0
 10
8.79020638360668
 20
1.035456396963812
 10
8.79020638360668
 20
1.056896684993618
  0
LWPOLYLINE
  5
DE89
330
1F
100
AcDbEntity
  8
NETAFIM-L-DETL-013M
100
AcDbPolyline
 90
        2
 70
     0
 43
0.0
 10
8.812031383606687
 20
1.035456396963812
 10
8.812031383606687
 20
1.056896684993618
  0
LWPOLYLINE
  5
DE8A
330
1F
100
AcDbEntity
  8
NETAFIM-L-DETL-013M
100
AcDbPolyline
 90
        2
 70
     0
 43
0.0
 10
8.76388138360668
 20
1.035456396963812
 10
8.76388138360668
 20
1.060431396963812
  0
LWPOLYLINE
  5
DE8B
330
1F
100
AcDbEntity
  8
NETAFIM-L-DETL-013M
100
AcDbPolyline
 90
        2
 70
     0
 43
0.0
 10
8.754881383606679
 20
1.060431396963812
 10
8.76388138360668
 20
1.060431396963812
  0
LWPOLYLINE
  5
DE8C
330
1F
100
AcDbEntity
  8
NETAFIM-L-DETL-013M
100
AcDbPolyline
 90
        2
 70
     0
 43
0.0
 10
8.770631383606684
 20
1.060431396963812
 10
8.779631383606684
 20
1.060431396963812
  0
LWPOLYLINE
  5
DE8D
330
1F
100
AcDbEntity
  8
NETAFIM-L-DETL-013M
100
AcDbPolyline
 90
        2
 70
     0
 43
0.0
 10
8.794481383606687
 20
1.065156396963812
 10
8.801118883606683
 20
1.048728124317597
  0
LWPOLYLINE
  5
DE8E
330
1F
100
AcDbEntity
  8
NETAFIM-L-DETL-013M
100
AcDbPolyline
 90
        2
 70
     0
 43
0.0
 10
8.80775638360668
 20
1.065156396963812
 10
8.801118883606683
 20
1.048728124317597
  0
LWPOLYLINE
  5
DE8F
330
1F
100
AcDbEntity
  8
NETAFIM-L-DETL-013M
100
AcDbPolyline
 90
        2
 70
     0
 43
0.0
 10
8.812031383606687
 20
1.056896684993618
 10
8.803368883606687
 20
1.035456396963812
  0
LWPOLYLINE
  5
DE90
330
1F
100
AcDbEntity
  8
NETAFIM-L-DETL-013M
100
AcDbPolyline
 90
        2
 70
     0
 43
0.0
 10
8.79020638360668
 20
1.056896684993618
 10
8.798868883606679
 20
1.035456396963812
  0
LWPOLYLINE
  5
DE91
330
1F
100
AcDbEntity
  8
NETAFIM-L-DETL-013M
100
AcDbPolyline
 90
        2
 70
     0
 43
0.0
 10
8.554433114455612
 20
1.065156396963812
 10
8.531918472736293
 20
0.9049563969638123
  0
LWPOLYLINE
  5
DE92
330
1F
100
AcDbEntity
  8
NETAFIM-L-DETL-013M
100
AcDbPolyline
 90
        2
 70
     0
 43
0.0
 10
8.737892683095658
 20
0.9049563969638123
 10
8.737892683095658
 20
1.065156396963812
  0
LWPOLYLINE
  5
DE93
330
1F
100
AcDbEntity
  8
NETAFIM-L-DETL-013M
100
AcDbPolyline
 90
        2
 70
     0
 43
0.0
 10
8.770631383606684
 20
1.035456396963812
 10
8.770631383606684
 20
1.060431396963812
  0
LWPOLYLINE
  5
DE94
330
1F
100
AcDbEntity
  8
NETAFIM-L-DETL-013M
100
AcDbPolyline
 90
        2
 70
     0
 43
0.0
 10
8.818781383606683
 20
1.035456396963812
 10
8.818781383606683
 20
1.065156396963812
  0
LWPOLYLINE
  5
DEA7
330
1F
100
AcDbEntity
  8
NETAFIM-LG-DETL-ANNO
100
AcDbPolyline
 90
        4
 70
     1
 43
0.0
 10
0.0
 20
0.0
 10
9.062500000000017
 20
0.0
 10
9.062500000000017
 20
7.125
 10
0.0
 20
7.125
1001
LandFX
1000
DETAIL-FORMAT
1000
1A
1040
1.0
1000
DIM1
  0
LINE
  5
DEB8
330
1F
100
AcDbEntity
  8
NETAFIM-D-070M
100
AcDbLine
 10
0.6827834977815748
 20
0.3411345796340779
 30
0.0
 11
8.822671659680125
 21
0.3411345796340779
 31
0.0
  0
CIRCLE
  5
DEB9
330
1F
100
AcDbEntity
  8
NETAFIM-D-070M
100
AcDbCircle
 10
0.4015334977815748
 20
0.3411345796340779
 30
0.0
 40
0.28125
1001
LandFX
1000
DETAIL-CIRCLE
  0
TEXT
  5
DEBA
330
1F
100
AcDbEntity
  8
NETAFIM-D-TEXT-025M
100
AcDbText
 10
0.2183970415697622
 20
0.2363665608325967
 30
0.0
 40
0.24
  1
00
  7
DETAIL NUMBER
 72
     1
 11
0.4015334977815748
 21
0.2363665608325967
 31
0.0
100
AcDbText
1001
LandFX
1000
DETAIL-NUMBER
  0
TEXT
  5
DEBB
330
1F
100
AcDbEntity
  8
NETAFIM-D-TEXT-025M
100
AcDbText
 10
0.862738956263076
 20
0.4291972829225479
 30
0.0
 40
0.18
  1
GUARDIAN 1" AIR/VACUUM RELIEF VALVE (PLUMBED TO PVC)
  7
DETAIL TITLE
100
AcDbText
1001
LandFX
1000
DETAIL-TITLE
  0
TEXT
  5
DEBC
330
1F
100
AcDbEntity
  8
NETAFIM-D-TEXT-025M
100
AcDbText
 10
0.8697210820341609
 20
0.139743013662887
 30
0.0
 40
0.09
  1
NOT TO SCALE
  7
DETAIL TEXT
100
AcDbText
1001
LandFX
1000
DETAIL-SCALE
  0
TEXT
  5
DEBD
330
1F
100
AcDbEntity
  8
NETAFIM-D-TEXT-025M
100
AcDbText
 10
7.788192080551773
 20
0.1348378227173228
 30
0.0
 40
0.09
  1
DETAIL - D281
  7
DETAIL TEXT
 72
     2
 11
8.812477794837487
 21
0.1348378227173228
 31
0.0
100
AcDbText
1001
LandFX
1000
DETAIL-FILE
  0
LINE
  5
DEBE
330
1F
100
AcDbEntity
  8
NETAFIM-D-NPLT
100
AcDbLine
 10
0.0
 20
0.1500000000000003
 30
0.0
 11
0.0
 21
0.0
 31
0.0
  0
LINE
  5
DEBF
330
1F
100
AcDbEntity
  8
NETAFIM-D-NPLT
100
AcDbLine
 10
9.0625
 20
0.1500000000000003
 30
0.0
 11
9.0625
 21
0.0
 31
0.0
  0
LINE
  5
DEC0
330
1F
100
AcDbEntity
  8
NETAFIM-D-NPLT
100
AcDbLine
 10
0.0
 20
0.0
 30
0.0
 11
0.1499999999999986
 21
0.0
 31
0.0
  0
LINE
  5
DEC1
330
1F
100
AcDbEntity
  8
NETAFIM-D-NPLT
100
AcDbLine
 10
8.912500000000001
 20
0.0
 30
0.0
 11
9.0625
 21
0.0
 31
0.0
  0
MULTILEADER
  5
DF14
102
{ACAD_XDICTIONARY
360
DF15
102
}
102
{ACAD_REACTORS
330
DF16
102
}
330
1F
100
AcDbEntity
  8
NETAFIM-L-DETL-TEXT-LEADER-025M
 92
      576
310
40020000140000000C00000016000000000000C00C00000013000000993A0000AC0000000B000000DF1BE4267690F93F6A6E48F45E431640000000000000000000000000000000000000000000000000000000000000F03F000000000000F03F0000000000000000000000000000000046494E495348204752414445000061
310
000C000000010000000AD7A3703D0AB73F000000000000F03F0000000000000000000000000000F03F0000000000000000000000000000000000000000726F6D616E732E7368780000000073000C000000100000000B0000000C00000016000000000000C00C00000012000000FF7F00000C00000013000000010000000C00
310
00001400000001000000540000000700000003000000E019315D6E540D4002447A76022C15400000000000000000481335232C200E4098541A8A4EE4144000000000000000008C628428EF300D402A8BC03B1807154000000000000000000C00000013000000891300003C000000060000000200000036BEDAC2AE420D4096
310
671D598D1915400000000000000000F9E4158478D20740280E63233C68164000000000000000000C00000013000000112700003C0000000600000002000000F9E4158478D20740280E63233C6816400000000000000000186A01D630F10440280E63233C68164000000000000000000C00000016000000000000C00C000000
310
12000000FF7F00000C00000017000000000000000C000000130000009A3A00000C00000016000000000000C00C00000012000000FF7F00000C00000017000000FFFFFFFF
100
AcDbMLeader
300
CONTEXT_DATA{
 40
1.0
 10
1.524911785592645
 20
5.601791909142356
 30
0.0
 41
0.09
140
0.12
145
0.09
174
     1
175
     1
176
     2
177
     0
290
     1
304
\A1;{\Fromans|c0;FINISH GRADE}
 11
0.0
 21
0.0
 31
1.0
340
DF01
 12
2.527768928449788
 22
5.655791909142356
 32
0.0
 13
1.0
 23
0.0
 33
0.0
 42
0.0
 43
1.350817444803325
 44
0.0
 45
1.0
170
     1
 90
-1073741824
171
     3
172
     5
 91
-1073741824
141
0.0
 92
        0
291
     0
292
     0
173
     0
293
     0
142
0.0
143
0.0
294
     0
295
     0
296
     0
110
3.765709185654859
120
5.222955854279597
130
0.0
111
1.0
121
0.0
131
0.0
112
0.0
122
1.0
132
0.0
297
     0
302
LEADER{
290
     1
291
     1
 10
2.977768928449787
 20
5.601791909142356
 30
0.0
 11
-1.0
 21
0.0
 31
0.0
 90
        0
 40
0.36
304
LEADER_LINE{
 10
3.765709185654859
 20
5.222955854279597
 30
0.0
 91
        0
305
}
303
}
301
}
340
DF04
 90
   279552
170
     1
 91
-1056964608
341
14
171
    -2
290
     1
291
     1
 41
0.36
 42
0.12
172
     2
343
DF01
173
     1
 95
        1
174
     1
175
     2
 92
-1056964608
292
     0
 93
-1056964608
 10
1.0
 20
1.0
 30
1.0
 43
0.0
176
     0
293
     0
294
     0
178
   256
179
     3
 45
1.0
1001
ACAD_MLEADERVER
1070
     2
  0
MULTILEADER
  5
DF17
330
1F
100
AcDbEntity
  8
NETAFIM-L-DETL-TEXT-LEADER-025M
 92
      744
310
E8020000150000000C00000016000000000000C00C00000013000000993A0000A80000000B0000004B46F15F6D6AFB3F23384637D84B1440000000000000000000000000000000000000000000000000000000000000F03F000000000000F03F000000000000000000000000000000004149522F56414355554D00E00A0000
310
00010000000AD7A3703D0AB73F000000000000F03F0000000000000000000000000000F03F0000000000000000000000000000000000000000726F6D616E732E736878000100000000AC0000000B000000DB08E788C9F9F93FC90AD7AA77A91340000000000000000000000000000000000000000000000000000000000000
310
F03F000000000000F03F0000000000000000000000000000000052454C4945462056414C5645000061000C000000010000000AD7A3703D0AB73F000000000000F03F0000000000000000000000000000F03F0000000000000000000000000000000000000000726F6D616E732E7368780000000073000C000000100000000B
310
0000000C00000016000000000000C00C00000012000000FF7F00000C00000013000000010000000C0000001400000001000000540000000700000003000000D914C71812C11240A5D1CA30866013400000000000000000C89B3DECB0361340AC2762B27B371340000000000000000019DE8F321EBA124035C6449928381340
310
00000000000000000C00000013000000891300003C00000006000000020000007979AB2598BD1240EDCB0765574C13400000000000000000F9E4158478D20740A06B36597C79144000000000000000000C00000013000000112700003C0000000600000002000000F9E4158478D20740A06B36597C79144000000000000000
310
00186A01D630F10440A06B36597C79144000000000000000000C00000016000000000000C00C00000012000000FF7F00000C00000017000000000000000C000000130000009A3A00000C00000016000000000000C00C00000012000000FF7F00000C00000017000000FFFFFFFF
100
AcDbMLeader
300
CONTEXT_DATA{
 40
1.0
 10
1.550626071306931
 20
5.118638414331968
 30
0.0
 41
0.09
140
0.12
145
0.09
174
     1
175
     1
176
     2
177
     0
290
     1
304
\A1;{\Fromans|c0;AIR/VACUUM\PRELIEF VALVE}
 11
0.0
 21
0.0
 31
1.0
340
DF01
 12
2.527768928449788
 22
5.172638414331968
 32
0.0
 13
1.0
 23
0.0
 33
0.0
 42
0.0
 43
1.089368891476958
 44
0.0
 45
1.0
170
     1
 90
-1073741824
171
     3
172
     5
 91
-1073741824
141
0.0
 92
        0
291
     0
292
     0
173
     0
293
     0
142
0.0
143
0.0
294
     0
295
     0
296
     0
110
4.803409281978879
120
4.804182803383735
130
0.0
111
1.0
121
0.0
131
0.0
112
0.0
122
1.0
132
0.0
297
     0
302
LEADER{
290
     1
291
     1
 10
2.977768928449787
 20
5.118638414331968
 30
0.0
 11
-1.0
 21
0.0
 31
0.0
 90
        0
 40
0.36
304
LEADER_LINE{
 10
4.803409281978879
 20
4.804182803383735
 30
0.0
 91
        0
305
}
303
}
301
}
340
DF04
 90
   279552
170
     1
 91
-1056964608
341
14
171
    -2
290
     1
291
     1
 41
0.36
 42
0.12
172
     2
343
DF01
173
     1
 95
        1
174
     1
175
     2
 92
-1056964608
292
     0
 93
-1056964608
 10
1.0
 20
1.0
 30
1.0
 43
0.0
176
     0
293
     0
294
     0
178
   256
179
     3
 45
1.0
1001
ACAD_MLEADERVER
1070
     2
  0
MULTILEADER
  5
DF18
102
{ACAD_XDICTIONARY
360
DF19
102
}
102
{ACAD_REACTORS
330
DF1A
102
}
330
1F
100
AcDbEntity
  8
NETAFIM-L-DETL-TEXT-LEADER-025M
 92
      740
310
E4020000150000000C00000016000000000000C00C00000013000000993A0000A80000000B00000035E7FF490E79FD3F17E9718657651240000000000000000000000000000000000000000000000000000000000000F03F000000000000F03F00000000000000000000000000000000362220524F554E44004D00E0080000
310
00010000000AD7A3703D0AB73F000000000000F03F0000000000000000000000000000F03F0000000000000000000000000000000000000000726F6D616E732E736878000100000000A80000000B000000BD34A56BF5B7FC3FBDBB02FAF6C21140000000000000000000000000000000000000000000000000000000000000
310
F03F000000000000F03F0000000000000000000000000000000056414C564520424F5800000009000000010000000AD7A3703D0AB73F000000000000F03F0000000000000000000000000000F03F0000000000000000000000000000000000000000726F6D616E732E736878000000DFAF6B0C000000100000000B0000000C
310
00000016000000000000C00C00000012000000FF7F00000C00000013000000010000000C000000140000000100000054000000070000000300000019B53EF6B2690F40A48B675F123912400000000000000000870AEE9FA02C10407C3B9EADD51612400000000000000000CEAF6AB070600F4035FB50CD5F10124000000000
310
000000000C00000013000000891300003C000000060000000200000074B254D311650F406D435C16B92412400000000000000000F9E4158478D20740941C62A8FB92124000000000000000000C00000013000000112700003C0000000600000002000000F9E4158478D20740941C62A8FB9212400000000000000000186A01
310
D630F10440941C62A8FB92124000000000000000000C00000016000000000000C00C00000012000000FF7F00000C00000017000000000000000C000000130000009A3A00000C00000016000000000000C00C00000012000000FF7F00000C00000017000000FFFFFFFF
100
AcDbMLeader
300
CONTEXT_DATA{
 40
1.0
 10
1.709197499878359
 20
4.643538123119601
 30
0.0
 41
0.09
140
0.12
145
0.09
174
     1
175
     1
176
     2
177
     0
290
     1
304
\A1;{\Fromans|c0;6" ROUND\PVALVE BOX}
 11
0.0
 21
0.0
 31
1.0
340
DF01
 12
2.527768928449788
 22
4.697538123119601
 32
0.0
 13
1.0
 23
0.0
 33
0.0
 42
0.0
 43
0.9324997743825989
 44
0.0
 45
1.0
170
     1
 90
-1073741824
171
     3
172
     5
 91
-1073741824
141
0.0
 92
        0
291
     0
292
     0
173
     0
293
     0
142
0.0
143
0.0
294
     0
295
     0
296
     0
110
4.043581484702946
120
4.5222994926288
130
0.0
111
1.0
121
0.0
131
0.0
112
0.0
122
1.0
132
0.0
297
     0
302
LEADER{
290
     1
291
     1
 10
2.977768928449787
 20
4.643538123119601
 30
0.0
 11
-1.0
 21
0.0
 31
0.0
 90
        0
 40
0.36
304
LEADER_LINE{
 10
4.043581484702946
 20
4.5222994926288
 30
0.0
 91
        0
305
}
303
}
301
}
340
DF04
 90
   279552
170
     1
 91
-1056964608
341
14
171
    -2
290
     1
291
     1
 41
0.36
 42
0.12
172
     2
343
DF01
173
     1
 95
        1
174
     1
175
     2
 92
-1056964608
292
     0
 93
-1056964608
 10
1.0
 20
1.0
 30
1.0
 43
0.0
176
     0
293
     0
294
     0
178
   256
179
     3
 45
1.0
1001
ACAD_MLEADERVER
1070
     2
  0
MULTILEADER
  5
DF1B
330
1F
100
AcDbEntity
  8
NETAFIM-L-DETL-TEXT-LEADER-025M
 92
      744
310
E8020000150000000C00000016000000000000C00C00000013000000993A0000A80000000B000000C4F84B3E862BFC3FCC1D27287F030F40000000000000000000000000000000000000000000000000000000000000F03F000000000000F03F0000000000000000000000000000000050564320504950494E4700000A0000
310
00010000000AD7A3703D0AB73F000000000000F03F0000000000000000000000000000F03F0000000000000000000000000000000000000000726F6D616E732E736878000000DFAF6BAC0000000B000000597FE839732EFA3F99EAF3F44BD00D40000000000000000000000000000000000000000000000000000000000000
310
F03F000000000000F03F00000000000000000000000000000000414E442046495454494E4753000061000C000000010000000AD7A3703D0AB73F000000000000F03F0000000000000000000000000000F03F0000000000000000000000000000000000000000726F6D616E732E7368780000000073000C000000100000000B
310
0000000C00000016000000000000C00C00000012000000FF7F00000C00000013000000010000000C0000001400000001000000540000000700000003000000D35BC8B4EC930B406B3F7FBD02FF0C40000000000000000010AC7C7AE1490C40B0ED21D3CF540C40000000000000000008D0607A8F660B40B5E23147CCBA0C40
310
00000000000000000C00000013000000891300003C0000000600000002000000EE9594173E7D0B4010915882E7DC0C400000000000000000F9E4158478D20740495D5C86394D0F4000000000000000000C00000013000000112700003C0000000600000002000000F9E4158478D20740495D5C86394D0F4000000000000000
310
00186A01D630F10440495D5C86394D0F4000000000000000000C00000016000000000000C00C00000012000000FF7F00000C00000017000000000000000C000000130000009A3A00000C00000016000000000000C00C00000012000000FF7F00000C00000017000000FFFFFFFF
100
AcDbMLeader
300
CONTEXT_DATA{
 40
1.0
 10
1.550626071306931
 20
3.912707376188027
 30
0.0
 41
0.09
140
0.12
145
0.09
174
     1
175
     1
176
     2
177
     0
290
     1
304
\A1;{\Fromans|c0;PVC PIPING\PAND FITTINGS}
 11
0.0
 21
0.0
 31
1.0
340
DF01
 12
2.527768928449788
 22
3.966707376188027
 32
0.0
 13
1.0
 23
0.0
 33
0.0
 42
0.0
 43
1.010934314302964
 44
0.0
 45
1.0
170
     1
 90
-1073741824
171
     3
172
     5
 91
-1073741824
141
0.0
 92
        0
291
     0
292
     0
173
     0
293
     0
142
0.0
143
0.0
294
     0
295
     0
296
     0
110
3.536074597291651
120
3.541412019226946
130
0.0
111
1.0
121
0.0
131
0.0
112
0.0
122
1.0
132
0.0
297
     0
302
LEADER{
290
     1
291
     1
 10
2.977768928449787
 20
3.912707376188027
 30
0.0
 11
-1.0
 21
0.0
 31
0.0
 90
        0
 40
0.36
304
LEADER_LINE{
 10
3.536074597291651
 20
3.541412019226946
 30
0.0
 91
        0
305
}
303
}
301
}
340
DF04
 90
   279552
170
     1
 91
-1056964608
341
14
171
    -2
290
     1
291
     1
 41
0.36
 42
0.12
172
     2
343
DF01
173
     1
 95
        1
174
     1
175
     2
 92
-1056964608
292
     0
 93
-1056964608
 10
1.0
 20
1.0
 30
1.0
 43
0.0
176
     0
293
     0
294
     0
178
   256
179
     3
 45
1.0
1001
ACAD_MLEADERVER
1070
     2
  0
MULTILEADER
  5
DF1C
102
{ACAD_XDICTIONARY
360
DF1D
102
}
102
{ACAD_REACTORS
330
DF1E
102
}
330
1F
100
AcDbEntity
  8
NETAFIM-L-DETL-TEXT-LEADER-025M
 92
      740
310
E4020000150000000C00000016000000000000C00C00000013000000993A0000AC0000000B000000087873E96BB9F53F035C0A4B06E90540000000000000000000000000000000000000000000000000000000000000F03F000000000000F03F00000000000000000000000000000000425249434B20535550504F52545300
310
000E000000010000000AD7A3703D0AB73F000000000000F03F0000000000000000000000000000F03F0000000000000000000000000000000000000000726F6D616E732E736878000000007300A40000000B000000CC758923D612004050012C3245A404400000000000000000000000000000000000000000000000000000
310
00000000F03F000000000000F03F00000000000000000000000000000000285448524545290007000000010000000AD7A3703D0AB73F000000000000F03F0000000000000000000000000000F03F0000000000000000000000000000000000000000726F6D616E732E7368780073007800000C000000100000000B0000000C
310
00000016000000000000C00C00000012000000FF7F00000C00000013000000010000000C00000014000000010000005400000007000000030000007E7DFA81B7F60C403B48E6F17F3F074000000000000000003897D3F0D6EF0D40702D52D72D4307400000000000000000BBF2EA4E60050D4032531BEFE6EE064000000000
310
000000000C00000013000000891300003C00000006000000020000001CB872E80BFE0C40B7CD8070331707400000000000000000F9E4158478D207404166E1EE7626064000000000000000000C00000013000000112700003C0000000600000002000000F9E4158478D207404166E1EE762606400000000000000000186A01
310
D630F104404166E1EE7626064000000000000000000C00000016000000000000C00C00000012000000FF7F00000C00000017000000000000000C000000130000009A3A00000C00000016000000000000C00C00000012000000FF7F00000C00000017000000FFFFFFFF
100
AcDbMLeader
300
CONTEXT_DATA{
 40
1.0
 10
1.284911785592645
 20
2.76878153443684
 30
0.0
 41
0.09
140
0.12
145
0.09
174
     1
175
     1
176
     2
177
     0
290
     1
304
\A1;{\Fromans|c0;BRICK SUPPORTS\P(THREE)}
 11
0.0
 21
0.0
 31
1.0
340
DF01
 12
2.527768928449788
 22
2.82878153443684
 32
0.0
 13
1.0
 23
0.0
 33
0.0
 42
0.0
 43
1.368247375677739
 44
0.0
 45
1.0
170
     1
 90
-1073741824
171
     3
172
     5
 91
-1073741824
141
0.0
 92
        0
291
     0
292
     0
173
     0
293
     0
142
0.0
143
0.0
294
     0
295
     0
296
     0
110
3.742109185654864
120
2.907802278704984
130
0.0
111
1.0
121
0.0
131
0.0
112
0.0
122
1.0
132
0.0
297
     0
302
LEADER{
290
     1
291
     1
 10
2.977768928449787
 20
2.76878153443684
 30
0.0
 11
-1.0
 21
0.0
 31
0.0
 90
        0
 40
0.36
304
LEADER_LINE{
 10
3.742109185654864
 20
2.907802278704984
 30
0.0
 91
        0
305
}
303
}
301
}
340
DF04
 90
   279552
170
     1
 91
-1056964608
341
14
171
    -2
290
     1
291
     1
 41
0.36
 42
0.12
172
     2
343
DF01
173
     1
 95
        1
174
     1
175
     2
 92
-1056964608
292
     0
 93
-1056964608
 10
1.0
 20
1.0
 30
1.0
 43
0.0
176
     0
293
     0
294
     0
178
   256
179
     3
 45
1.0
1001
ACAD_MLEADERVER
1070
     2
  0
MULTILEADER
  5
DF1F
102
{ACAD_XDICTIONARY
360
DF20
102
}
102
{ACAD_REACTORS
330
DF21
102
}
330
1F
100
AcDbEntity
  8
NETAFIM-L-DETL-TEXT-LEADER-025M
 92
      752
310
F0020000150000000C00000016000000000000C00C00000013000000993A0000B00000000B000000AAD5B35596C6F23F4B6E1259B75C0040000000000000000000000000000000000000000000000000000000000000F03F000000000000F03F00000000000000000000000000000000332F34222047524156454C2053554D
310
500000000010000000010000000AD7A3703D0AB73F000000000000F03F0000000000000000000000000000F03F0000000000000000000000000000000000000000726F6D616E732E736878000000000000AC0000000B000000FBEF25444AD2F63F33D811B5D00CFE3F00000000000000000000000000000000000000000000
310
0000000000000000F03F000000000000F03F00000000000000000000000000000000283120435542494320464F4F542900000E000000010000000AD7A3703D0AB73F000000000000F03F0000000000000000000000000000F03F0000000000000000000000000000000000000000726F6D616E732E7368780000000073000C
310
000000100000000B0000000C00000016000000000000C00C00000012000000FF7F00000C00000013000000010000000C00000014000000010000005400000007000000030000007EEC2178294B12406DCB23C31C13064000000000000000004C43A88CA1C412408E444B7F664A06400000000000000000B265EA89B15A1240
310
4A0F0D664FC7054000000000000000000C00000013000000891300003C000000060000000200000018290681ED5212405B6D981436ED05400000000000000000F9E4158478D2074008A094E2B5AB004000000000000000000C00000013000000112700003C0000000600000002000000F9E4158478D2074008A094E2B5AB00
310
400000000000000000186A01D630F1044008A094E2B5AB004000000000000000000C00000016000000000000C00C00000012000000FF7F00000C00000017000000000000000C000000130000009A3A00000C00000016000000000000C00C00000012000000FF7F00000C00000017000000FFFFFFFF
100
AcDbMLeader
300
CONTEXT_DATA{
 40
1.0
 10
1.096340357021217
 20
2.083843012009314
 30
0.0
 41
0.09
140
0.12
145
0.09
174
     1
175
     1
176
     2
177
     0
290
     1
304
\A1;{\Fromans|c0;3/4" GRAVEL SUMP\P(1 CUBIC FOOT)}
 11
0.0
 21
0.0
 31
1.0
340
DF01
 12
2.527768928449788
 22
2.143843012009314
 32
0.0
 13
1.0
 23
0.0
 33
0.0
 42
0.0
 43
1.455396881035312
 44
0.0
 45
1.0
170
     1
 90
-1073741824
171
     3
172
     5
 91
-1073741824
141
0.0
 92
        0
291
     0
292
     0
173
     0
293
     0
142
0.0
143
0.0
294
     0
295
     0
296
     0
110
4.692022512216521
120
2.786328310474863
130
0.0
111
1.0
121
0.0
131
0.0
112
0.0
122
1.0
132
0.0
297
     0
302
LEADER{
290
     1
291
     1
 10
2.977768928449787
 20
2.083843012009314
 30
0.0
 11
-1.0
 21
0.0
 31
0.0
 90
        0
 40
0.36
304
LEADER_LINE{
 10
4.692022512216521
 20
2.786328310474863
 30
0.0
 91
        0
305
}
303
}
301
}
340
DF04
 90
   279552
170
     1
 91
-1056964608
341
14
171
    -2
290
     1
291
     1
 41
0.36
 42
0.12
172
     2
343
DF01
173
     1
 95
        1
174
     1
175
     2
 92
-1056964608
292
     0
 93
-1056964608
 10
1.0
 20
1.0
 30
1.0
 43
0.0
176
     0
293
     0
294
     0
178
   256
179
     3
 45
1.0
1001
ACAD_MLEADERVER
1070
     2
  0
MTEXT
  5
DFBB
330
1F
100
AcDbEntity
  8
NETAFIM-D-NPLT
100
AcDbMText
 10
-0.7827171174748458
 20
0.2352495300830739
 30
0.0
 40
0.06
 41
6.843161446901433
 71
     1
 72
     5
  3
{\fArial|b0|i0|c0|p34;LIMITATIONS:\P\PALLOWING FOR A WIDE VARIETY OF APPLICATIONS AND CONDITIONS, NETAFIM IRRIGATION INC. IS NOT RESPONSIBLE FOR CORRECTNESS OR APPLICABILITY TO PURPOSE OR COMPATIBILITY TO ANY SITE OR JOB CONDITION. WARRANTY FOR SUITA
  3
BILITY IS NOT GIVEN OR IMPLIED. MODIFICATIONS FOR SPECIFIC PURPOSES MAY BE NECESSARY AND ARE THE SPECIFIERS' RESPONSIBILITY. THE USE OF THESE DETAILS SHALL NOT BE RESTRICTED AND PUBLICATION THEREOF IS NOT LIMITED TO ANY PURPOSE.  REPRODUCTION, PUBLIC
  1
ATION AND REUSE BY ANY METHOD IN WHOLE OR PART IS FULLY AUTHORIZED. OWNERSHIP IS RETAINED BY NETAFIM IRRIGATION INC.  VISUAL CONTACT WITH THESE DETAILS SHALL CONSTITUTE PRIMA FACIA EVIDENCE OF THE ACCEPTANCE OF THESE RESTRICTIONS.}
  7
DETAIL TEXT
 11
0.0000000000000001
 21
1.0
 31
0.0
 73
     1
 44
1.0
1001
ACAD
1000
ACAD_MTEXT_COLUMN_INFO_BEGIN
1070
    75
1070
     2
1070
    79
1070
     0
1070
    76
1070
     1
1070
    78
1070
     0
1070
    48
1040
6.843161446901433
1070
    49
1040
0.45
1070
    50
1070
     1
1040
0.0
1000
ACAD_MTEXT_COLUMN_INFO_END
  0
LWPOLYLINE
  5
DFBC
330
1F
100
AcDbEntity
  8
NETAFIM-D-NPLT
100
AcDbPolyline
 90
        4
 70
     1
 43
0.0
 10
0.0
 20
7.124999999999998
 10
-0.8951802582263113
 20
7.124999999999998
 10
-0.8951802582263113
 20
0.0
 10
0.0
 20
0.0
  0
ENDSEC
  0
SECTION
  2
OBJECTS
  0
DICTIONARY
  5
C
330
0
100
AcDbDictionary
281
     1
  3
ACAD_CIP_PREVIOUS_PRODUCT_INFO
350
DF6B
  3
ACAD_COLOR
350
73
  3
ACAD_GROUP
350
D
  3
ACAD_LAYOUT
350
1A
  3
ACAD_MATERIAL
350
72
  3
ACAD_MLEADERSTYLE
350
D7
  3
ACAD_MLINESTYLE
350
17
  3
ACAD_PLOTSETTINGS
350
19
  3
ACAD_PLOTSTYLENAME
350
E
  3
ACAD_SCALELIST
350
B6
  3
ACAD_TABLESTYLE
350
86
  3
ACAD_VISUALSTYLE
350
99
  3
ACDB_RECOMPOSE_DATA
350
E04B
  3
AcDbVariableDictionary
350
66
  3
ADE_QUERY_LIBRARY
350
18F
  3
AEC_PROPERTY_SET_DEFS
350
DFB7
  3
ASE_INDEX_DICTIONARY
350
1FA
  3
Autodesk_MAP
350
179
1001
ADE
1000
ADE02C004
1000
[Query]
1000
CaseSensitiveMatch=0
1000
SaveCurrQueryInSession=1
1000
MkSelSetWithQryObj=0
1000
ShowBlockAsInsPt=0
1000
CreateAssociativeHatchObjects=0
1000
ReferenceBoundaryForAreaLocation=1
1000
ShowImageAsBoundary=1
1000
DefaultJoinOperator=2
1000
ColorForAdd=red
1000
ColorForRemove=red
1000
BlockLocnForQuery=1
1000
TextLocnForQuery=1
1000
IncludeAllObjectsInGroups=0
1000
AlwaysUseLibraryDefinitions=0
1000
PreviewDefinitionsFrom=2
1000
[Save Back]
1000
RedefineBlockDefinitions=1
1000
RedefineLayerDefinitions=1
1000
RedefineTextStyleDefinitions=1
1000
RemoveUnusedGroups=1
1000
EraseSavedBackObjects=1
1000
RemoveLockAfterSave=1
1000
CreateHistoryFileOfChanges=0
1000
CreateBackupFileOfSourceDwg=1
1000
DontAddObjectsToSaveSet=0
1000
MarkObjectsForEditingWithoutPrompting=0
1000
FdoDontAddObjsToSvSet=0
1000
FdoEditWithoutPrompt=1
1000
FdoRemUnusedGrps=1
1000
FdoEraseSvdBkObjs=1
1000
FdoRemoveLockOnSave=1
1000
FdoTesselationMaxPointsDistance=0
1000
FdoTesselationMaxCurvesDistance=0
1000
[Coordinate Transformation]
1000
RestoreLastActiveDwgsOnStartup=1
1000
ActivateDwgsOnAttach=1
1000
AdjustSizesAndScalesForChangesInUnits=1
1000
AdjustRotationsForMapDistortions=1
1000
AdjustSizesAndScalesForMapDistortions=1
1000
AdjustElevations=1
1000
AdjustZeroRotationObjects=1
1000
ReconnectDbOnWSOpen=1
1000
NoOfSQLConditionsInHistory=10
  0
DICTIONARY
  5
E00B
330
8
100
AcDbDictionary
280
     1
281
     1
  0
DICTIONARY
  5
20C
330
2
100
AcDbDictionary
280
     1
281
     1
  3
ACAD_LAYERSTATES
360
20D
  0
DICTIONARY
  5
E6
330
10
100
AcDbDictionary
280
     1
281
     1
  0
DICTIONARY
  5
1A2
330
1A1
100
AcDbDictionary
280
     1
281
     1
  0
DICTIONARY
  5
1A4
330
1A3
100
AcDbDictionary
280
     1
281
     1
  0
DICTIONARY
  5
1A8
330
1A7
100
AcDbDictionary
280
     1
281
     1
  0
DICTIONARY
  5
DF00
330
DEFF
100
AcDbDictionary
280
     1
281
     1
  0
DICTIONARY
  5
15D
330
1F
100
AcDbDictionary
280
     1
281
     1
  3
ACAD_GEOGRAPHICDATA
360
18D
  3
ACAD_SORTENTS
360
188
  0
DICTIONARY
  5
DF15
330
DF14
100
AcDbDictionary
280
     1
281
     1
  3
ACAD_DIMASSOC
360
DF16
  0
DICTIONARY
  5
DF19
330
DF18
100
AcDbDictionary
280
     1
281
     1
  3
ACAD_DIMASSOC
360
DF1A
  0
DICTIONARY
  5
DF1D
330
DF1C
100
AcDbDictionary
280
     1
281
     1
  3
ACAD_DIMASSOC
360
DF1E
  0
DICTIONARY
  5
DF20
330
DF1F
100
AcDbDictionary
280
     1
281
     1
  3
ACAD_DIMASSOC
360
DF21
  0
XRECORD
  5
DF6B
102
{ACAD_REACTORS
330
C
102
}
330
C
100
AcDbXrecord
280
     1
300
MAP
300
2012
300
MAP_F_S
  0
DICTIONARY
  5
73
102
{ACAD_REACTORS
330
C
102
}
330
C
100
AcDbDictionary
281
     1
  0
DICTIONARY
  5
D
102
{ACAD_REACTORS
330
C
102
}
330
C
100
AcDbDictionary
281
     1
  0
DICTIONARY
  5
1A
102
{ACAD_REACTORS
330
C
102
}
330
C
100
AcDbDictionary
281
     1
  3
Layout1
350
59
  3
Layout2
350
5E
  3
Model
350
22
  0
DICTIONARY
  5
72
102
{ACAD_REACTORS
330
C
102
}
330
C
100
AcDbDictionary
281
     1
  3
ByBlock
350
97
  3
ByLayer
350
96
  3
Global
350
98
  0
DICTIONARY
  5
D7
102
{ACAD_REACTORS
330
C
102
}
330
C
100
AcDbDictionary
281
     1
  3
Netafim Detail
350
DF04
  3
Standard
350
D8
  0
DICTIONARY
  5
17
102
{ACAD_REACTORS
330
C
102
}
330
C
100
AcDbDictionary
281
     1
  3
Standard
350
18
  0
DICTIONARY
  5
19
102
{ACAD_REACTORS
330
C
102
}
330
C
100
AcDbDictionary
281
     1
  0
ACDBDICTIONARYWDFLT
  5
E
102
{ACAD_REACTORS
330
C
102
}
330
C
100
AcDbDictionary
281
     1
  3
Normal
350
F
100
AcDbDictionaryWithDefault
340
F
  0
DICTIONARY
  5
B6
102
{ACAD_REACTORS
330
C
102
}
330
C
100
AcDbDictionary
281
     1
  3
A0
350
B7
  3
A1
350
124
  3
A2
350
125
  3
A3
350
126
  3
A4
350
127
  3
A5
350
128
  3
A6
350
129
  3
A7
350
12A
  3
A8
350
12B
  3
A9
350
12C
  3
B0
350
12D
  3
B1
350
12E
  3
B2
350
12F
  3
B3
350
130
  3
B4
350
131
  3
B5
350
132
  3
B6
350
133
  3
B7
350
134
  3
B8
350
135
  3
B9
350
136
  3
C0
350
137
  3
C1
350
138
  3
C2
350
139
  3
C3
350
13A
  3
C4
350
13B
  3
C5
350
13C
  3
C6
350
13D
  3
C7
350
13E
  3
C8
350
13F
  3
C9
350
140
  3
D0
350
141
  3
D1
350
142
  3
D2
350
143
  0
DICTIONARY
  5
86
102
{ACAD_REACTORS
330
C
102
}
330
C
100
AcDbDictionary
281
     1
  3
Legend
350
181
  3
Standard
350
87
  0
DICTIONARY
  5
99
102
{ACAD_REACTORS
330
C
102
}
330
C
100
AcDbDictionary
281
     1
  3
2dWireframe
350
9F
  3
3D Hidden
350
A1
  3
3dWireframe
350
A0
  3
Basic
350
9E
  3
Brighten
350
A5
  3
ColorChange
350
A9
  3
Conceptual
350
A2
  3
Dim
350
A4
  3
EdgeColorOff
350
175
  3
Facepattern
350
A8
  3
Flat
350
9A
  3
FlatWithEdges
350
9B
  3
Gouraud
350
9C
  3
GouraudWithEdges
350
9D
  3
Hidden
350
1AE
  3
JitterOff
350
173
  3
Linepattern
350
A7
  3
OverhangOff
350
174
  3
Realistic
350
A3
  3
Shaded
350
1B1
  3
Shaded with edges
350
1B4
  3
Shades of Gray
350
1B7
  3
Sketchy
350
1BA
  3
Thicken
350
A6
  3
Wireframe
350
1BD
  3
X-Ray
350
1C0
  0
XRECORD
  5
E04B
102
{ACAD_REACTORS
330
C
102
}
330
C
100
AcDbXrecord
280
     1
 90
        1
330
87
330
181
330
DFBB
  0
DICTIONARY
  5
66
102
{ACAD_REACTORS
330
C
102
}
330
C
100
AcDbDictionary
281
     1
  3
CANNOSCALE
350
F0
  3
CMLEADERSTYLE
350
EF
  3
CTABLESTYLE
350
89
  3
DIMASSOC
350
67
  3
EXPORTMODELSPACE
350
DFE7
  3
HIDETEXT
350
6B
  3
LAYEREVAL
350
14D
  3
LAYERNOTIFY
350
14E
  3
LIGHTINGUNITS
350
6D8
  3
MSLTSCALE
350
E03A
  3
STEPSIZE
350
E03B
  3
XCLIPFRAME
350
E048
  0
DICTIONARY
  5
18F
102
{ACAD_REACTORS
330
C
102
}
330
C
100
AcDbDictionary
281
     1
  3
_CurrQry
350
E047
  0
DICTIONARY
  5
DFB7
102
{ACAD_REACTORS
330
C
102
}
330
C
100
AcDbDictionary
281
     1
  0
DICTIONARY
  5
1FA
102
{ACAD_REACTORS
330
C
102
}
330
C
100
AcDbDictionary
281
     1
  3
ASEBlockHierarchyIndexRecord
350
1FB
1001
DCO15
1040
1758269258.677
  0
DICTIONARY
  5
179
102
{ACAD_REACTORS
330
C
102
}
330
C
100
AcDbDictionary
281
     1
  3
AcMapDMStylizedEntities
350
189
  3
FSD_Dictionary
350
18A
  3
MAP_DISPLAY_CUSTOMOBJ_REG_TABLE
350
17D
  3
MAP_DISPLAY_MANAGEMENT_DICTIONARY
350
17A
  3
MAP_DISPLAY_STYLELIBRARY_DICTIONARY
350
17B
  3
MAP_RESOURCE_VERSION_MANAGEMENT_DICTIONARY
350
17E
1001
MapGWS
1000
D:\ProgramData\Autodesk\AutoCAD Map 3D 2010\R18.0\MapCache\D281-GUARDIAN_AIR_VACUUM_RELIEF_VALVE_PLUMBED TO PVCGWS1344888762.xml
  0
DICTIONARY
  5
20D
102
{ACAD_REACTORS
330
20C
102
}
330
20C
100
AcDbDictionary
281
     1
  0
GEODATA
  5
18D
102
{ACAD_REACTORS
330
15D
102
}
330
15D
100
AcDbGeoData
 90
        1
 70
     0
330
1F
 40
37.795
 41
-122.394
 42
0.0
 91
        6
 10
0.0
 20
0.0
 30
0.0
 11
0.0
 21
0.0
 31
0.0
210
0.0
220
0.0
230
1.0
 52
0.0
 43
1.0
 44
1.0
 45
1.0
301

302
<georss:point>37.7950 -122.3940</georss:point>
 46
1.0
303

304

305

306

307

 93
        0
 96
        0
  3
CIVIL3D_DATA_BEGIN
292
     0
 14
-122.394
 24
37.795
 15
-122.394
 25
37.795
 93
        0
 94
        0
293
     0
 16
0.0
 26
0.0
 17
0.0
 27
0.0
 54
0.0
140
0.0
 95
        3
141
1.0
294
     0
142
0.0
143
0.0
  4
CIVIL3D_DATA_END
  0
SORTENTSTABLE
  5
188
102
{ACAD_REACTORS
330
15D
102
}
330
15D
100
AcDbSortentsTable
330
1F
331
86C9
  5
86C9
331
C42F
  5
C695
331
86D1
  5
86D1
331
C400
  5
C666
331
8682
  5
8682
331
DD19
  5
DD19
331
DE93
  5
DE93
331
DE54
  5
DE54
331
DCA3
  5
DCA3
331
DC2D
  5
DC2D
331
D7FE
  5
DA65
331
DC64
  5
DC64
331
DCDA
  5
DCDA
331
DD50
  5
DD50
331
DD97
  5
DD97
331
DD21
  5
DD21
331
DE5C
  5
DE5C
331
DCAB
  5
DCAB
331
DC35
  5
DC35
331
D806
  5
DA6D
331
DC6C
  5
DC6C
331
DCE2
  5
DCE2
331
DD58
  5
DD58
331
DD9F
  5
DD9F
331
DD29
  5
DD29
331
DEBB
  5
DEBB
331
DE64
  5
DE64
331
DCB3
  5
DCB3
331
DC3D
  5
DC3D
331
D80E
  5
DA75
331
DC74
  5
DC74
331
DCEA
  5
DCEA
331
DD60
  5
DD60
331
DDA7
  5
DDA7
331
DE6C
  5
DE6C
331
D816
  5
DA7D
331
DC7C
  5
DC7C
331
DCF2
  5
DCF2
331
DD68
  5
DD68
331
C408
  5
C66E
331
868A
  5
868A
331
C410
  5
C676
331
89B1
  5
89B1
331
C420
  5
C686
331
86BA
  5
86BA
331
DD31
  5
DD31
331
DE74
  5
DE74
331
DCBB
  5
DCBB
331
DDAD
  5
DDAD
331
DC45
  5
DC45
331
D717
  5
D6E4
331
D81E
  5
DA83
331
DC84
  5
DC84
331
DCFA
  5
DCFA
331
DD70
  5
DD70
331
DD39
  5
DD39
331
DE7C
  5
DE7C
331
DCC3
  5
DCC3
331
DE3D
  5
DE3D
331
DC4D
  5
DC4D
331
D826
  5
DA8A
331
DC8C
  5
DC8C
331
DD02
  5
DD02
331
DD78
  5
DD78
331
DD41
  5
DD41
331
DE84
  5
DE84
331
DCCB
  5
DCCB
331
DE45
  5
DE45
331
DC55
  5
DC55
331
DC94
  5
DC94
331
DD0A
  5
DD0A
331
DD80
  5
DD80
331
DD88
  5
DD88
331
DD12
  5
DD12
331
DE8C
  5
DE8C
331
DE4D
  5
DE4D
331
DC9C
  5
DC9C
331
DC5D
  5
DC5D
331
DCD3
  5
DCD3
331
DD49
  5
DD49
331
B709
  5
B70A
331
86C2
  5
86C2
331
C428
  5
C68E
331
86CA
  5
86CA
331
C430
  5
C696
331
86D2
  5
86D2
331
C401
  5
C667
331
8683
  5
8683
331
DD90
  5
DD90
331
DD1A
  5
DD1A
331
DE94
  5
DE94
331
DE55
  5
DE55
331
DCA4
  5
DCA4
331
DC2E
  5
DC2E
331
D7FF
  5
DA66
331
DC65
  5
DC65
331
DCDB
  5
DCDB
331
DD51
  5
DD51
331
DD98
  5
DD98
331
DD22
  5
DD22
331
DE5D
  5
DE5D
331
DCAC
  5
DCAC
331
DC36
  5
DC36
331
D807
  5
DA6E
331
DC6D
  5
DC6D
331
DCE3
  5
DCE3
331
DD59
  5
DD59
331
DDA0
  5
DDA0
331
DD2A
  5
DD2A
331
DEBC
  5
DEBC
331
DE65
  5
DE65
331
DCB4
  5
DCB4
331
DC3E
  5
DC3E
331
D80F
  5
DA76
331
DC75
  5
DC75
331
DCEB
  5
DCEB
331
DD61
  5
DD61
331
DE6D
  5
DE6D
331
D817
  5
DA7E
331
DC7D
  5
DC7D
331
DCF3
  5
DCF3
331
DD69
  5
DD69
331
868B
  5
868B
331
C411
  5
C677
331
8693
  5
8693
331
89B2
  5
89E1
331
C419
  5
C67F
331
89E2
  5
89E2
331
C421
  5
C687
331
86BB
  5
86BB
331
DD32
  5
DD32
331
DE75
  5
DE75
331
DCBC
  5
DCBC
331
DDAE
  5
DDAE
331
D718
  5
D6E5
331
D81F
  5
DA84
331
DC46
  5
DC46
331
DC85
  5
DC85
331
DCFB
  5
DCFB
331
DD71
  5
DD71
331
DD3A
  5
DD3A
331
DE7D
  5
DE7D
331
DCC4
  5
DCC4
331
DE3E
  5
DE3E
331
D827
  5
DA8B
331
DC4E
  5
DC4E
331
DC8D
  5
DC8D
331
DD03
  5
DD03
331
DD79
  5
DD79
331
DD42
  5
DD42
331
DE85
  5
DE85
331
DCCC
  5
DCCC
331
DE46
  5
DE46
331
D7B8
  5
D787
331
DC56
  5
DC56
331
DC95
  5
DC95
331
DD0B
  5
DD0B
331
DD81
  5
DD81
331
DD89
  5
DD89
331
DD13
  5
DD13
331
DE8D
  5
DE8D
331
DE4E
  5
DE4E
331
DC9D
  5
DC9D
331
DC5E
  5
DC5E
331
DCD4
  5
DCD4
331
DD4A
  5
DD4A
331
B70A
  5
B70B
331
86C3
  5
86C3
331
C429
  5
C68F
331
BED2
  5
865F
331
86CB
  5
86CB
331
C431
  5
C697
331
86D3
  5
899F
331
C402
  5
C668
331
8684
  5
8684
331
DD91
  5
DD91
331
DD1B
  5
DD1B
331
DCA5
  5
DCA5
331
DCDC
  5
DCDC
331
DD52
  5
DD52
331
DC2F
  5
DC2F
331
D800
  5
DA67
331
DC66
  5
DC66
331
DE56
  5
DE56
331
DD99
  5
DD99
331
DD23
  5
DD23
331
DCAD
  5
DCAD
331
DCE4
  5
DCE4
331
DD5A
  5
DD5A
331
DC37
  5
DC37
331
D808
  5
DA6F
331
DC6E
  5
DC6E
331
DE5E
  5
DE5E
331
DD62
  5
DD62
331
DCEC
  5
DCEC
331
DD2B
  5
DD2B
331
DDA1
  5
DDA1
331
DCB5
  5
DCB5
331
DEBD
  5
DEBD
331
DC76
  5
DC76
331
DC3F
  5
DC3F
331
D810
  5
DA77
331
DE66
  5
DE66
331
DCF4
  5
DCF4
331
DD6A
  5
DD6A
331
DC7E
  5
DC7E
331
DE6E
  5
DE6E
331
868C
  5
868C
331
C412
  5
C678
331
C41A
  5
C680
331
89E3
  5
8D50
331
C422
  5
C688
331
86BC
  5
86BC
331
D818
  5
DA7F
331
DD33
  5
DD33
331
DCBD
  5
DCBD
331
DCFC
  5
DCFC
331
DD72
  5
DD72
331
DC47
  5
DC47
331
D719
  5
D6E6
331
D820
  5
DA85
331
DC86
  5
DC86
331
DE76
  5
DE76
331
DD3B
  5
DD3B
331
DCC5
  5
DCC5
331
DD04
  5
DD04
331
DD7A
  5
DD7A
331
DC8E
  5
DC8E
331
D828
  5
DA8C
331
DC4F
  5
DC4F
331
DE3F
  5
DE3F
331
DE7E
  5
DE7E
331
DD43
  5
DD43
331
DCCD
  5
DCCD
331
DD0C
  5
DD0C
331
DD82
  5
DD82
331
DC96
  5
DC96
331
DC57
  5
DC57
331
DE47
  5
DE47
331
DE86
  5
DE86
331
DD8A
  5
DD8A
331
DD14
  5
DD14
331
DCD5
  5
DCD5
331
DD4B
  5
DD4B
331
DC9E
  5
DC9E
331
DE8E
  5
DE8E
331
DC5F
  5
DC5F
331
DE4F
  5
DE4F
331
B70B
  5
B70C
331
86CC
  5
86CC
331
C432
  5
C698
331
C403
  5
C669
331
8685
  5
8685
331
DD92
  5
DD92
331
DD1C
  5
DD1C
331
DCA6
  5
DCA6
331
DCDD
  5
DCDD
331
DD53
  5
DD53
331
DC30
  5
DC30
331
D801
  5
DA68
331
DC67
  5
DC67
331
DE57
  5
DE57
331
DD9A
  5
DD9A
331
DD24
  5
DD24
331
DCAE
  5
DCAE
331
DCE5
  5
DCE5
331
DD5B
  5
DD5B
331
DC38
  5
DC38
331
D809
  5
DA70
331
DC6F
  5
DC6F
331
DE5F
  5
DE5F
331
DDA2
  5
DDA2
331
DD2C
  5
DD2C
331
DCED
  5
DCED
331
DD63
  5
DD63
331
DCB6
  5
DCB6
331
DEBE
  5
DEBE
331
D811
  5
DA78
331
DC77
  5
DC77
331
DE67
  5
DE67
331
DD6B
  5
DD6B
331
DCF5
  5
DCF5
331
DC7F
  5
DC7F
331
DE6F
  5
DE6F
331
868D
  5
868D
331
C413
  5
C679
331
C41B
  5
C681
331
86B5
  5
86B5
331
B704
  5
B705
331
86BD
  5
86BD
331
C423
  5
C689
331
D819
  5
DA80
331
DC40
  5
DC40
331
DDA8
  5
DDA8
331
DD73
  5
DD73
331
DD34
  5
DD34
331
DCBE
  5
DCBE
331
DCFD
  5
DCFD
331
D71A
  5
D6E8
331
D821
  5
DA86
331
DC48
  5
DC48
331
DC87
  5
DC87
331
DE77
  5
DE77
331
DD7B
  5
DD7B
331
DD3C
  5
DD3C
331
DCC6
  5
DCC6
331
DD05
  5
DD05
331
DC8F
  5
DC8F
331
D829
  5
DA8D
331
DC50
  5
DC50
331
DE40
  5
DE40
331
DE7F
  5
DE7F
331
DD83
  5
DD83
331
DD44
  5
DD44
331
DCCE
  5
DCCE
331
DD0D
  5
DD0D
331
DC97
  5
DC97
331
DC58
  5
DC58
331
DE48
  5
DE48
331
DE87
  5
DE87
331
DD8B
  5
DD8B
331
DD15
  5
DD15
331
DCD6
  5
DCD6
331
DD4C
  5
DD4C
331
DC9F
  5
DC9F
331
DE8F
  5
DE8F
331
865E
  5
865D
331
86C5
  5
86C5
331
C42B
  5
C691
331
86CD
  5
86CD
331
C433
  5
C699
331
867E
  5
867E
331
C404
  5
C66A
331
8686
  5
8686
331
DC60
  5
DC60
331
DE50
  5
DE50
331
DD93
  5
DD93
331
DD1D
  5
DD1D
331
DCA7
  5
DCA7
331
DCDE
  5
DCDE
331
DD54
  5
DD54
331
DC31
  5
DC31
331
D802
  5
DA69
331
DC68
  5
DC68
331
DE58
  5
DE58
331
DD9B
  5
DD9B
331
DD25
  5
DD25
331
DCE6
  5
DCE6
331
DD5C
  5
DD5C
331
DCAF
  5
DCAF
331
DEA7
  5
DEA7
331
DC39
  5
DC39
331
D80A
  5
DA71
331
DC70
  5
DC70
331
DE60
  5
DE60
331
DDA3
  5
DDA3
331
DD2D
  5
DD2D
331
DCEE
  5
DCEE
331
DD64
  5
DD64
331
DCB7
  5
DCB7
331
DEBF
  5
DEBF
331
D812
  5
DA79
331
DC78
  5
DC78
331
DE68
  5
DE68
331
DD6C
  5
DD6C
331
DCF6
  5
DCF6
331
C40C
  5
C672
331
868E
  5
868E
331
C414
  5
C67A
331
C41C
  5
C682
331
86B6
  5
86B6
331
B705
  5
B706
331
86BE
  5
86BE
331
C424
  5
C68A
331
DC80
  5
DC80
331
D81A
  5
DA81
331
DC41
  5
DC41
331
DDA9
  5
DDA9
331
DE70
  5
DE70
331
DD74
  5
DD74
331
DD35
  5
DD35
331
DCBF
  5
DCBF
331
DCFE
  5
DCFE
331
DC88
  5
DC88
331
D822
  5
DA87
331
DC49
  5
DC49
331
DE39
  5
DE39
331
DE78
  5
DE78
331
DD7C
  5
DD7C
331
DD3D
  5
DD3D
331
DCC7
  5
DCC7
331
DD06
  5
DD06
331
DC90
  5
DC90
331
D82A
  5
DA8E
331
DC51
  5
DC51
331
DE41
  5
DE41
331
DE80
  5
DE80
331
DD84
  5
DD84
331
DD45
  5
DD45
331
DCCF
  5
DCCF
331
DD0E
  5
DD0E
331
DC98
  5
DC98
331
DE88
  5
DE88
331
D832
  5
D6E9
331
DC59
  5
DC59
331
DE49
  5
DE49
331
DD8C
  5
DD8C
331
DD16
  5
DD16
331
DCD7
  5
DCD7
331
DD4D
  5
DD4D
331
865F
  5
865E
331
86C6
  5
86C6
331
C42C
  5
C692
331
86CE
  5
86CE
331
D6C4
  5
D691
331
C3FD
  5
C663
331
867F
  5
867F
331
C405
  5
C66B
331
8687
  5
8687
331
DCA0
  5
DCA0
331
DE90
  5
DE90
331
D7FB
  5
D786
331
DC61
  5
DC61
331
DE51
  5
DE51
331
DD94
  5
DD94
331
DD1E
  5
DD1E
331
DCA8
  5
DCA8
331
DCDF
  5
DCDF
331
DD55
  5
DD55
331
DC32
  5
DC32
331
D803
  5
DA6A
331
DC69
  5
DC69
331
DE59
  5
DE59
331
DD9C
  5
DD9C
331
DD26
  5
DD26
331
DCE7
  5
DCE7
331
DD5D
  5
DD5D
331
DCB0
  5
DCB0
331
DEB8
  5
DEB8
331
DC3A
  5
DC3A
331
D80B
  5
DA72
331
DC71
  5
DC71
331
DE61
  5
DE61
331
DDA4
  5
DDA4
331
DD2E
  5
DD2E
331
DCEF
  5
DCEF
331
DD65
  5
DD65
331
D813
  5
DA7A
331
DC79
  5
DC79
331
DE69
  5
DE69
331
DD6D
  5
DD6D
331
DCF7
  5
DCF7
331
86B7
  5
86B7
331
C41D
  5
C683
331
86BF
  5
86BF
331
B706
  5
B707
331
C425
  5
C68B
331
DCB8
  5
DCB8
331
DEC0
  5
DEC0
331
DC81
  5
DC81
331
DC42
  5
DC42
331
DDAA
  5
DDAA
331
DE71
  5
DE71
331
DD75
  5
DD75
331
DD36
  5
DD36
331
DCC0
  5
DCC0
331
DCFF
  5
DCFF
331
DC89
  5
DC89
331
DC4A
  5
DC4A
331
DE3A
  5
DE3A
331
DE79
  5
DE79
331
DD7D
  5
DD7D
331
DD3E
  5
DD3E
331
DCC8
  5
DCC8
331
DD07
  5
DD07
331
DC91
  5
DC91
331
D7B4
  5
DA92
331
D82B
  5
DA8F
331
DC52
  5
DC52
331
DE42
  5
DE42
331
DE81
  5
DE81
331
DD85
  5
DD85
331
DD46
  5
DD46
331
DCD0
  5
DCD0
331
DD0F
  5
DD0F
331
DC99
  5
DC99
331
DE89
  5
DE89
331
D833
  5
D6E7
331
DC5A
  5
DC5A
331
DE4A
  5
DE4A
331
DD17
  5
DD17
331
DD4E
  5
DD4E
331
DD8D
  5
DD8D
331
C42D
  5
C693
331
8660
  5
8660
331
86C7
  5
86C7
331
86CF
  5
86CF
331
D6C5
  5
D692
331
8680
  5
8680
331
C3FE
  5
C664
331
C406
  5
C66C
331
DE91
  5
DE91
331
DE52
  5
DE52
331
DCA1
  5
DCA1
331
DC2B
  5
DC2B
331
D7FC
  5
DA63
331
DC62
  5
DC62
331
DCD8
  5
DCD8
331
DD1F
  5
DD1F
331
DE5A
  5
DE5A
331
DCA9
  5
DCA9
331
DC33
  5
DC33
331
D804
  5
DA6B
331
DC6A
  5
DC6A
331
DCE0
  5
DCE0
331
DD56
  5
DD56
331
DD95
  5
DD95
331
DD27
  5
DD27
331
DEB9
  5
DEB9
331
DE62
  5
DE62
331
DCB1
  5
DCB1
331
DC3B
  5
DC3B
331
D80C
  5
DA73
331
DC72
  5
DC72
331
DCE8
  5
DCE8
331
DD5E
  5
DD5E
331
DD9D
  5
DD9D
331
DDA5
  5
DDA5
331
DD2F
  5
DD2F
331
DE6A
  5
DE6A
331
D814
  5
DA7B
331
DC7A
  5
DC7A
331
DCF0
  5
DCF0
331
DD66
  5
DD66
331
DD6E
  5
DD6E
331
8688
  5
8688
331
C40E
  5
C674
331
89AF
  5
89AF
331
86B8
  5
86B8
331
C41E
  5
C684
331
B707
  5
B708
331
C426
  5
C68C
331
DEC1
  5
DEC1
331
DE72
  5
DE72
331
DCB9
  5
DCB9
331
DDAB
  5
DDAB
331
DC43
  5
DC43
331
DC82
  5
DC82
331
DCF8
  5
DCF8
331
DD76
  5
DD76
331
DD37
  5
DD37
331
DE7A
  5
DE7A
331
DCC1
  5
DCC1
331
DE3B
  5
DE3B
331
D824
  5
DA88
331
DC4B
  5
DC4B
331
DC8A
  5
DC8A
331
DD00
  5
DD00
331
DD7E
  5
DD7E
331
DD3F
  5
DD3F
331
DE82
  5
DE82
331
DCC9
  5
DCC9
331
DE43
  5
DE43
331
D7B5
  5
D783
331
D82C
  5
DA90
331
DC53
  5
DC53
331
DC92
  5
DC92
331
DD08
  5
DD08
331
DD86
  5
DD86
331
DD10
  5
DD10
331
DE8A
  5
DE8A
331
DE4B
  5
DE4B
331
DC9A
  5
DC9A
331
DC5B
  5
DC5B
331
DCD1
  5
DCD1
331
DD47
  5
DD47
331
DD4F
  5
DD4F
331
DD8E
  5
DD8E
331
86C0
  5
86C0
331
C42E
  5
C694
331
8661
  5
867D
331
86C8
  5
86C8
331
86D0
  5
86D0
331
8681
  5
8681
331
C3FF
  5
C665
331
C407
  5
C66D
331
DD18
  5
DD18
331
DE92
  5
DE92
331
DE53
  5
DE53
331
DCA2
  5
DCA2
331
DC2C
  5
DC2C
331
D7FD
  5
DA64
331
DC63
  5
DC63
331
DCD9
  5
DCD9
331
DD20
  5
DD20
331
DE5B
  5
DE5B
331
DCAA
  5
DCAA
331
DC34
  5
DC34
331
D805
  5
DA6C
331
DC6B
  5
DC6B
331
DCE1
  5
DCE1
331
DD57
  5
DD57
331
DD96
  5
DD96
331
DD28
  5
DD28
331
DEBA
  5
DEBA
331
DE63
  5
DE63
331
DCB2
  5
DCB2
331
DC3C
  5
DC3C
331
D80D
  5
DA74
331
DC73
  5
DC73
331
DCE9
  5
DCE9
331
DD5F
  5
DD5F
331
DD9E
  5
DD9E
331
DDA6
  5
DDA6
331
DE6B
  5
DE6B
331
DCF1
  5
DCF1
331
DC7B
  5
DC7B
331
D815
  5
DA7C
331
DD67
  5
DD67
331
DD6F
  5
DD6F
331
8689
  5
8689
331
C40F
  5
C675
331
89B0
  5
89B0
331
C417
  5
C67D
331
86B9
  5
86B9
331
C41F
  5
C685
331
C427
  5
C68D
331
DD30
  5
DD30
331
DE73
  5
DE73
331
DCBA
  5
DCBA
331
DDAC
  5
DDAC
331
DC44
  5
DC44
331
D81D
  5
DA82
331
DC83
  5
DC83
331
DCF9
  5
DCF9
331
DD38
  5
DD38
331
DE7B
  5
DE7B
331
DCC2
  5
DCC2
331
DE3C
  5
DE3C
331
DC4C
  5
DC4C
331
D825
  5
DA89
331
DC8B
  5
DC8B
331
DD01
  5
DD01
331
DD77
  5
DD77
331
DD40
  5
DD40
331
DE83
  5
DE83
331
DCCA
  5
DCCA
331
DE44
  5
DE44
331
DC54
  5
DC54
331
D7B6
  5
D785
331
D82D
  5
DA91
331
DC93
  5
DC93
331
DD09
  5
DD09
331
DD7F
  5
DD7F
331
DD11
  5
DD11
331
DE8B
  5
DE8B
331
DE4C
  5
DE4C
331
DC9B
  5
DC9B
331
DC5C
  5
DC5C
331
DCD2
  5
DCD2
331
DD48
  5
DD48
331
DD87
  5
DD87
331
DD8F
  5
DD8F
331
B708
  5
B709
331
86C1
  5
86C1
  0
DIMASSOC
  5
DF16
102
{ACAD_REACTORS
330
DF15
102
}
330
DF15
100
AcDbDimAssoc
330
DF14
 90
        1
 70
     0
 71
     0
  1
AcDbOsnapPointRef
 72
     1
331
89E3
 73
     2
 91
        3
 40
0.9999999999999998
 10
0.0
 20
0.0
 30
2.000000000000000E+50
 75
     0
  0
DIMASSOC
  5
DF1A
102
{ACAD_REACTORS
330
DF19
102
}
330
DF19
100
AcDbDimAssoc
330
DF18
 90
        1
 70
     0
 71
     0
  1
AcDbOsnapPointRef
 72
    10
331
865F
 73
     2
 91
        2
 40
0.3875957007092279
 10
0.0
 20
0.0
 30
0.0
 75
     0
  0
DIMASSOC
  5
DF1E
102
{ACAD_REACTORS
330
DF1D
102
}
330
DF1D
100
AcDbDimAssoc
330
DF1C
 90
        1
 70
     0
 71
     0
  1
AcDbOsnapPointRef
 72
    10
331
8660
 73
     2
 91
        4
 40
0.415852473397946
 10
0.0
 20
0.0
 30
0.0
 75
     0
  0
DIMASSOC
  5
DF21
102
{ACAD_REACTORS
330
DF20
102
}
330
DF20
100
AcDbDimAssoc
330
DF1F
 90
        1
 70
     0
 71
     0
  1
AcDbOsnapPointRef
 72
     1
331
DC5A
 73
     2
 91
        0
 40
1.0
 10
0.0
 20
0.0
 30
2.000000000000000E+50
 75
     0
  0
LAYOUT
  5
59
102
{ACAD_REACTORS
330
1A
102
}
330
1A
100
AcDbPlotSettings
  1

  2
None
  4

  6

 40
0.0
 41
0.0
 42
0.0
 43
0.0
 44
0.0
 45
0.0
 46
0.0
 47
0.0
 48
0.0
 49
0.0
140
0.0
141
0.0
142
1.0
143
1.0
 70
   688
 72
     0
 73
     0
 74
     5
  7
NETAFIM.ctb
 75
    16
147
1.0
 76
     0
 77
     2
 78
   300
148
0.0
149
0.0
100
AcDbLayout
  1
Layout1
 70
     1
 71
     1
 10
0.0
 20
0.0
 11
12.0
 21
9.0
 12
0.0
 22
0.0
 32
0.0
 14
0.0
 24
0.0
 34
0.0
 15
0.0
 25
0.0
 35
0.0
146
0.0
 13
0.0
 23
0.0
 33
0.0
 16
1.0
 26
0.0
 36
0.0
 17
0.0
 27
1.0
 37
0.0
 76
     0
330
58
  0
LAYOUT
  5
5E
102
{ACAD_REACTORS
330
1A
102
}
330
1A
100
AcDbPlotSettings
  1

  2
None
  4

  6

 40
0.0
 41
0.0
 42
0.0
 43
0.0
 44
0.0
 45
0.0
 46
0.0
 47
0.0
 48
0.0
 49
0.0
140
0.0
141
0.0
142
1.0
143
1.0
 70
   688
 72
     0
 73
     0
 74
     5
  7
NETAFIM.ctb
 75
    16
147
1.0
 76
     0
 77
     2
 78
   300
148
0.0
149
0.0
100
AcDbLayout
  1
Layout2
 70
     1
 71
     2
 10
0.0
 20
0.0
 11
12.0
 21
9.0
 12
0.0
 22
0.0
 32
0.0
 14
0.0
 24
0.0
 34
0.0
 15
0.0
 25
0.0
 35
0.0
146
0.0
 13
0.0
 23
0.0
 33
0.0
 16
1.0
 26
0.0
 36
0.0
 17
0.0
 27
1.0
 37
0.0
 76
     0
330
5D
  0
LAYOUT
  5
22
102
{ACAD_XDICTIONARY
360
6F0
102
}
102
{ACAD_REACTORS
330
1A
102
}
330
1A
100
AcDbPlotSettings
  1

  2
Adobe PDF
  4
Letter
  6

 40
3.174999952316284
 41
3.174999952316284
 42
3.175003051757812
 43
3.17498779296875
 44
215.8999938964844
 45
279.3999938964844
 46
14.27854008407574
 47
21.42108758217736
 48
0.0
 49
0.0
140
0.0
141
0.0
142
1.0
143
1.0
 70
 11940
 72
     0
 73
     1
 74
     1
  7
NETAFIM.ctb
 75
     0
147
1.157762430065653
 76
     0
 77
     2
 78
   300
148
0.0027024674228905
149
0.0018771226328617
100
AcDbLayout
  1
Model
 70
     1
 71
     0
 10
0.0
 20
0.0
 11
12.0
 21
9.0
 12
0.0
 22
0.0
 32
0.0
 14
0.0
 24
0.0
 34
0.0
 15
0.0
 25
0.0
 35
0.0
146
0.0
 13
0.0
 23
0.0
 33
0.0
 16
1.0
 26
0.0
 36
0.0
 17
0.0
 27
1.0
 37
0.0
 76
     0
330
1F
331
94
1001
ACAD_PSEXT
1000
Adobe PDF
1000
Adobe PDF Converter
1000
My Documents\*.pdf
1000

1070
     0
  0
MATERIAL
  5
97
102
{ACAD_XDICTIONARY
360
E04F
102
}
102
{ACAD_REACTORS
330
72
102
}
330
72
100
AcDbMaterial
  1
ByBlock
  0
MATERIAL
  5
96
102
{ACAD_XDICTIONARY
360
E04D
102
}
102
{ACAD_REACTORS
330
72
102
}
330
72
100
AcDbMaterial
  1
ByLayer
  0
MATERIAL
  5
98
102
{ACAD_XDICTIONARY
360
110
102
}
102
{ACAD_REACTORS
330
72
102
}
330
72
100
AcDbMaterial
  1
Global
 43
0.0208000000566244
 43
0.0
 43
0.0
 43
0.0
 43
0.0
 43
0.0208000000566244
 43
0.0
 43
0.0
 43
0.0
 43
0.0
 43
1.0
 43
0.0
 43
0.0
 43
0.0
 43
0.0
 43
1.0
 49
0.0208000000566244
 49
0.0
 49
0.0
 49
0.0
 49
0.0
 49
0.0208000000566244
 49
0.0
 49
0.0
 49
0.0
 49
0.0
 49
1.0
 49
0.0
 49
0.0
 49
0.0
 49
0.0
 49
1.0
142
0.0208000000566244
142
0.0
142
0.0
142
0.0
142
0.0
142
0.0208000000566244
142
0.0
142
0.0
142
0.0
142
0.0
142
1.0
142
0.0
142
0.0
142
0.0
142
0.0
142
1.0
144
0.0208000000566244
144
0.0
144
0.0
144
0.0
144
0.0
144
0.0208000000566244
144
0.0
144
0.0
144
0.0
144
0.0
144
1.0
144
0.0
144
0.0
144
0.0
144
0.0
144
1.0
1001
ACAD
1070
    -1
1070
     3
1070
     0
1000

1071
        0
1070
     0
  0
MLEADERSTYLE
  5
DF04
102
{ACAD_REACTORS
330
D7
330
DF14
330
DF17
330
DF18
330
DF1B
330
DF1C
330
DF1F
102
}
330
D7
100
AcDbMLeaderStyle
170
     2
171
     1
172
     0
 90
        2
 40
0.0
 41
0.0
173
     1
 91
-1056964608
340
14
 92
       -2
290
     1
 42
0.09
291
     1
 43
0.36
  3
Standard
 44
0.12
300

342
DF01
174
     1
178
     1
175
     1
176
     0
 93
-1056964608
 45
0.09
292
     0
297
     0
 46
0.18
 94
-1056964608
 47
1.0
 49
1.0
140
1.0
293
     1
141
0.0
294
     1
177
     0
142
1.0
295
     0
296
     0
143
0.125
1001
ACAD_MLEADERVER
1070
     2
  0
MLEADERSTYLE
  5
D8
102
{ACAD_REACTORS
330
D7
102
}
330
D7
100
AcDbMLeaderStyle
170
     2
171
     1
172
     0
 90
        2
 40
0.0
 41
0.0
173
     1
 91
-1056964608
340
14
 92
       -2
290
     1
 42
0.09
291
     1
 43
0.36
  3
Standard
 44
0.18
300

342
11
174
     1
178
     1
175
     1
176
     0
 93
-1056964608
 45
0.18
292
     0
297
     0
 46
0.18
 94
-1056964608
 47
1.0
 49
1.0
140
1.0
293
     1
141
0.0
294
     1
177
     0
142
1.0
295
     0
296
     0
143
0.125
1001
ACAD_MLEADERVER
1070
     2
  0
MLINESTYLE
  5
18
102
{ACAD_REACTORS
330
17
102
}
330
17
100
AcDbMlineStyle
  2
STANDARD
 70
     0
  3

 62
   256
 51
90.0
 52
90.0
 71
     2
 49
0.5
 62
   256
  6
BYLAYER
 49
-0.5
 62
   256
  6
BYLAYER
  0
ACDBPLACEHOLDER
  5
F
102
{ACAD_REACTORS
330
E
102
}
330
E
  0
SCALE
  5
B7
102
{ACAD_REACTORS
330
B6
102
}
330
B6
100
AcDbScale
 70
     0
300
1:1
140
1.0
141
1.0
290
     1
  0
SCALE
  5
124
102
{ACAD_REACTORS
330
B6
102
}
330
B6
100
AcDbScale
 70
     0
300
1:2
140
1.0
141
2.0
290
     0
  0
SCALE
  5
125
102
{ACAD_REACTORS
330
B6
102
}
330
B6
100
AcDbScale
 70
     0
300
1:4
140
1.0
141
4.0
290
     0
  0
SCALE
  5
126
102
{ACAD_REACTORS
330
B6
102
}
330
B6
100
AcDbScale
 70
     0
300
1:5
140
1.0
141
5.0
290
     0
  0
SCALE
  5
127
102
{ACAD_REACTORS
330
B6
102
}
330
B6
100
AcDbScale
 70
     0
300
1:8
140
1.0
141
8.0
290
     0
  0
SCALE
  5
128
102
{ACAD_REACTORS
330
B6
102
}
330
B6
100
AcDbScale
 70
     0
300
1:10
140
1.0
141
10.0
290
     0
  0
SCALE
  5
129
102
{ACAD_REACTORS
330
B6
102
}
330
B6
100
AcDbScale
 70
     0
300
1:16
140
1.0
141
16.0
290
     0
  0
SCALE
  5
12A
102
{ACAD_REACTORS
330
B6
102
}
330
B6
100
AcDbScale
 70
     0
300
1:20
140
1.0
141
20.0
290
     0
  0
SCALE
  5
12B
102
{ACAD_REACTORS
330
B6
102
}
330
B6
100
AcDbScale
 70
     0
300
1:30
140
1.0
141
30.0
290
     0
  0
SCALE
  5
12C
102
{ACAD_REACTORS
330
B6
102
}
330
B6
100
AcDbScale
 70
     0
300
1:40
140
1.0
141
40.0
290
     0
  0
SCALE
  5
12D
102
{ACAD_REACTORS
330
B6
102
}
330
B6
100
AcDbScale
 70
     0
300
1:50
140
1.0
141
50.0
290
     0
  0
SCALE
  5
12E
102
{ACAD_REACTORS
330
B6
102
}
330
B6
100
AcDbScale
 70
     0
300
1:100
140
1.0
141
100.0
290
     0
  0
SCALE
  5
12F
102
{ACAD_REACTORS
330
B6
102
}
330
B6
100
AcDbScale
 70
     0
300
2:1
140
2.0
141
1.0
290
     0
  0
SCALE
  5
130
102
{ACAD_REACTORS
330
B6
102
}
330
B6
100
AcDbScale
 70
     0
300
4:1
140
4.0
141
1.0
290
     0
  0
SCALE
  5
131
102
{ACAD_REACTORS
330
B6
102
}
330
B6
100
AcDbScale
 70
     0
300
8:1
140
8.0
141
1.0
290
     0
  0
SCALE
  5
132
102
{ACAD_REACTORS
330
B6
102
}
330
B6
100
AcDbScale
 70
     0
300
10:1
140
10.0
141
1.0
290
     0
  0
SCALE
  5
133
102
{ACAD_REACTORS
330
B6
102
}
330
B6
100
AcDbScale
 70
     0
300
100:1
140
100.0
141
1.0
290
     0
  0
SCALE
  5
134
102
{ACAD_REACTORS
330
B6
102
}
330
B6
100
AcDbScale
 70
     0
300
1/128" = 1'-0"
140
0.0078125
141
12.0
290
     0
  0
SCALE
  5
135
102
{ACAD_REACTORS
330
B6
102
}
330
B6
100
AcDbScale
 70
     0
300
1/64" = 1'-0"
140
0.015625
141
12.0
290
     0
  0
SCALE
  5
136
102
{ACAD_REACTORS
330
B6
102
}
330
B6
100
AcDbScale
 70
     0
300
1/32" = 1'-0"
140
0.03125
141
12.0
290
     0
  0
SCALE
  5
137
102
{ACAD_REACTORS
330
B6
102
}
330
B6
100
AcDbScale
 70
     0
300
1/16" = 1'-0"
140
0.0625
141
12.0
290
     0
  0
SCALE
  5
138
102
{ACAD_REACTORS
330
B6
102
}
330
B6
100
AcDbScale
 70
     0
300
3/32" = 1'-0"
140
0.09375
141
12.0
290
     0
  0
SCALE
  5
139
102
{ACAD_REACTORS
330
B6
102
}
330
B6
100
AcDbScale
 70
     0
300
1/8" = 1'-0"
140
0.125
141
12.0
290
     0
  0
SCALE
  5
13A
102
{ACAD_REACTORS
330
B6
102
}
330
B6
100
AcDbScale
 70
     0
300
3/16" = 1'-0"
140
0.1875
141
12.0
290
     0
  0
SCALE
  5
13B
102
{ACAD_REACTORS
330
B6
102
}
330
B6
100
AcDbScale
 70
     0
300
1/4" = 1'-0"
140
0.25
141
12.0
290
     0
  0
SCALE
  5
13C
102
{ACAD_REACTORS
330
B6
102
}
330
B6
100
AcDbScale
 70
     0
300
3/8" = 1'-0"
140
0.375
141
12.0
290
     0
  0
SCALE
  5
13D
102
{ACAD_REACTORS
330
B6
102
}
330
B6
100
AcDbScale
 70
     0
300
1/2" = 1'-0"
140
0.5
141
12.0
290
     0
  0
SCALE
  5
13E
102
{ACAD_REACTORS
330
B6
102
}
330
B6
100
AcDbScale
 70
     0
300
3/4" = 1'-0"
140
0.75
141
12.0
290
     0
  0
SCALE
  5
13F
102
{ACAD_REACTORS
330
B6
102
}
330
B6
100
AcDbScale
 70
     0
300
1" = 1'-0"
140
1.0
141
12.0
290
     0
  0
SCALE
  5
140
102
{ACAD_REACTORS
330
B6
102
}
330
B6
100
AcDbScale
 70
     0
300
1-1/2" = 1'-0"
140
1.5
141
12.0
290
     0
  0
SCALE
  5
141
102
{ACAD_REACTORS
330
B6
102
}
330
B6
100
AcDbScale
 70
     0
300
3" = 1'-0"
140
3.0
141
12.0
290
     0
  0
SCALE
  5
142
102
{ACAD_REACTORS
330
B6
102
}
330
B6
100
AcDbScale
 70
     0
300
6" = 1'-0"
140
6.0
141
12.0
290
     0
  0
SCALE
  5
143
102
{ACAD_REACTORS
330
B6
102
}
330
B6
100
AcDbScale
 70
     0
300
1'-0" = 1'-0"
140
12.0
141
12.0
290
     0
  0
TABLESTYLE
  5
181
102
{ACAD_XDICTIONARY
360
E008
102
}
102
{ACAD_REACTORS
330
86
102
}
330
86
100
AcDbTableStyle
  3

 70
     0
 71
     3
 40
0.06
 41
0.06
280
     0
281
     0
  7
Legend
140
0.4
170
     4
 62
     0
 63
     7
283
     0
274
    -2
284
     0
 64
     0
275
    -2
285
     0
 65
     0
276
    -2
286
     0
 66
     0
277
    -2
287
     0
 67
     0
278
    -2
288
     0
 68
     0
279
    -2
289
     0
 69
     0
  7
Legend
140
0.5
170
     5
 62
     0
 63
     7
283
     0
274
    -2
284
     0
 64
     0
275
    -2
285
     0
 65
     0
276
    -2
286
     0
 66
     0
277
    -2
287
     0
 67
     0
278
    -2
288
     0
 68
     0
279
    -2
289
     0
 69
     0
  7
Legend
140
0.4
170
     4
 62
     0
 63
     7
283
     0
274
    -2
284
     0
 64
     0
275
    -2
285
     0
 65
     0
276
    -2
286
     0
 66
     0
277
    -2
287
     0
 67
     0
278
    -2
288
     0
 68
     0
279
    -2
289
     0
 69
     0
  0
TABLESTYLE
  5
87
102
{ACAD_XDICTIONARY
360
104
102
}
102
{ACAD_REACTORS
330
86
102
}
330
86
100
AcDbTableStyle
  3
Standard
 70
     0
 71
     0
 40
0.06
 41
0.06
280
     0
281
     0
  7
Standard
140
0.18
170
     2
 62
     0
 63
     7
283
     0
274
    -2
284
     1
 64
     0
275
    -2
285
     1
 65
     0
276
    -2
286
     1
 66
     0
277
    -2
287
     1
 67
     0
278
    -2
288
     1
 68
     0
279
    -2
289
     1
 69
     0
  7
Standard
140
0.25
170
     5
 62
     0
 63
     7
283
     0
274
    -2
284
     1
 64
     0
275
    -2
285
     1
 65
     0
276
    -2
286
     1
 66
     0
277
    -2
287
     1
 67
     0
278
    -2
288
     1
 68
     0
279
    -2
289
     1
 69
     0
  7
Standard
140
0.18
170
     5
 62
     0
 63
     7
283
     0
274
    -2
284
     1
 64
     0
275
    -2
285
     1
 65
     0
276
    -2
286
     1
 66
     0
277
    -2
287
     1
 67
     0
278
    -2
288
     1
 68
     0
279
    -2
289
     1
 69
     0
  0
VISUALSTYLE
  5
9F
102
{ACAD_XDICTIONARY
360
E05C
102
}
102
{ACAD_REACTORS
330
99
102
}
330
99
100
AcDbVisualStyle
  2
2dWireframe
 70
     4
 71
     0
 72
     2
 73
     1
 90
        0
 40
-0.6
 41
-30.0
 62
     5
 63
     7
421
 16777215
 74
     1
 91
        4
 64
     7
 65
   257
 75
     1
175
     1
 42
1.0
 92
        0
 66
   257
 43
1.0
 76
     1
 77
     6
 78
     2
 67
     7
 79
     5
170
     0
171
     0
290
     0
174
     0
 93
        1
 44
0.0
173
     0
291
     0
 45
0.0
1001
ACAD
1000
AcDbSavedByObjectVersion
1070
     0
  0
VISUALSTYLE
  5
A1
102
{ACAD_XDICTIONARY
360
E060
102
}
102
{ACAD_REACTORS
330
99
102
}
330
99
100
AcDbVisualStyle
  2
3D Hidden
 70
     6
 71
     1
 72
     2
 73
     2
 90
        0
 40
-0.6
 41
-30.0
 62
     5
 63
     7
421
 16777215
 74
     2
 91
        2
 64
     7
 65
   257
 75
     2
175
     1
 42
40.0
 92
        0
 66
   257
 43
1.0
 76
     1
 77
     6
 78
     2
 67
     7
 79
     3
170
     0
171
     0
290
     0
174
     0
 93
        1
 44
0.0
173
     0
291
     0
 45
0.0
1001
ACAD
1000
AcDbSavedByObjectVersion
1070
     0
  0
VISUALSTYLE
  5
A0
102
{ACAD_XDICTIONARY
360
E05E
102
}
102
{ACAD_REACTORS
330
99
102
}
330
99
100
AcDbVisualStyle
  2
3dWireframe
 70
     5
 71
     0
 72
     2
 73
     1
 90
        0
 40
-0.6
 41
-30.0
 62
     5
 63
     7
421
 16777215
 74
     1
 91
        4
 64
     7
 65
   257
 75
     1
175
     1
 42
1.0
 92
        0
 66
   257
 43
1.0
 76
     1
 77
     6
 78
     2
 67
     7
 79
     5
170
     0
171
     0
290
     0
174
     0
 93
        1
 44
0.0
173
     0
291
     0
 45
0.0
1001
ACAD
1000
AcDbSavedByObjectVersion
1070
     0
  0
VISUALSTYLE
  5
9E
102
{ACAD_XDICTIONARY
360
E05A
102
}
102
{ACAD_REACTORS
330
99
102
}
330
99
100
AcDbVisualStyle
  2
Basic
 70
     7
 71
     1
 72
     0
 73
     1
 90
        0
 40
-0.6
 41
-30.0
 62
     5
 63
     7
421
 16777215
 74
     0
 91
        4
 64
     7
 65
   257
 75
     1
175
     1
 42
1.0
 92
        8
 66
     7
 43
1.0
 76
     1
 77
     6
 78
     2
 67
     7
 79
     5
170
     0
171
     0
290
     0
174
     0
 93
        1
 44
0.0
173
     0
291
     1
 45
0.0
1001
ACAD
1000
AcDbSavedByObjectVersion
1070
     0
  0
VISUALSTYLE
  5
A5
102
{ACAD_XDICTIONARY
360
E068
102
}
102
{ACAD_REACTORS
330
99
102
}
330
99
100
AcDbVisualStyle
  2
Brighten
 70
    12
 71
     2
 72
     2
 73
     1
 90
        0
 40
-0.6
 41
-30.0
 62
     5
 63
     7
421
 16777215
 74
     1
 91
        4
 64
     7
 65
   257
 75
     1
175
     1
 42
1.0
 92
        8
 66
     7
 43
1.0
 76
     1
 77
     6
 78
     2
 67
     7
 79
     5
170
     0
171
     0
290
     0
174
     0
 93
        1
 44
50.0
173
     0
291
     1
 45
0.0
1001
ACAD
1000
AcDbSavedByObjectVersion
1070
     0
  0
VISUALSTYLE
  5
A9
102
{ACAD_XDICTIONARY
360
E070
102
}
102
{ACAD_REACTORS
330
99
102
}
330
99
100
AcDbVisualStyle
  2
ColorChange
 70
    16
 71
     2
 72
     2
 73
     3
 90
        0
 40
-0.6
 41
-30.0
 62
     5
 63
     8
421
  8421504
 74
     1
 91
        4
 64
     7
 65
   257
 75
     1
175
     1
 42
1.0
 92
        8
 66
     8
424
  8421504
 43
1.0
 76
     1
 77
     6
 78
     2
 67
     7
 79
     5
170
     0
171
     0
290
     0
174
     0
 93
        1
 44
0.0
173
     0
291
     1
 45
0.0
1001
ACAD
1000
AcDbSavedByObjectVersion
1070
     0
  0
VISUALSTYLE
  5
A2
102
{ACAD_XDICTIONARY
360
E062
102
}
102
{ACAD_REACTORS
330
99
102
}
330
99
100
AcDbVisualStyle
  2
Conceptual
 70
     9
 71
     3
 72
     2
 73
     1
 90
        0
 40
-0.6
 41
-30.0
 62
     5
 63
     7
421
 16777215
 74
     2
 91
        2
 64
     7
 65
   257
 75
     1
175
     1
 42
40.0
 92
        8
 66
     7
 43
1.0
 76
     1
 77
     6
 78
     2
 67
     7
 79
     3
170
     0
171
     0
290
     0
174
     0
 93
        1
 44
0.0
173
     0
291
     0
 45
0.0
1001
ACAD
1000
AcDbSavedByObjectVersion
1070
     0
  0
VISUALSTYLE
  5
A4
102
{ACAD_XDICTIONARY
360
E066
102
}
102
{ACAD_REACTORS
330
99
102
}
330
99
100
AcDbVisualStyle
  2
Dim
 70
    11
 71
     2
 72
     2
 73
     1
 90
        0
 40
-0.6
 41
-30.0
 62
     5
 63
     7
421
 16777215
 74
     1
 91
        4
 64
     7
 65
   257
 75
     1
175
     1
 42
1.0
 92
        8
 66
     7
 43
1.0
 76
     1
 77
     6
 78
     2
 67
     7
 79
     5
170
     0
171
     0
290
     0
174
     0
 93
        1
 44
-50.0
173
     0
291
     1
 45
0.0
1001
ACAD
1000
AcDbSavedByObjectVersion
1070
     0
  0
VISUALSTYLE
  5
175
102
{ACAD_XDICTIONARY
360
E076
102
}
102
{ACAD_REACTORS
330
99
102
}
330
99
100
AcDbVisualStyle
  2
EdgeColorOff
 70
    22
 71
     2
 72
     2
 73
     0
 90
        0
 40
-0.6
 41
-30.0
 62
     5
 63
     7
421
 16777215
 74
     1
 91
        4
 64
     7
 65
   257
 75
     1
175
     1
 42
1.0
 92
        8
 66
     7
 43
1.0
 76
     1
 77
     6
 78
     2
 67
     7
 79
     5
170
     0
171
     0
290
     0
174
     0
 93
        1
 44
0.0
173
     0
291
     1
 45
0.0
1001
ACAD
1000
AcDbSavedByObjectVersion
1070
     0
  0
VISUALSTYLE
  5
A8
102
{ACAD_XDICTIONARY
360
E06E
102
}
102
{ACAD_REACTORS
330
99
102
}
330
99
100
AcDbVisualStyle
  2
Facepattern
 70
    15
 71
     2
 72
     2
 73
     1
 90
        0
 40
-0.6
 41
-30.0
 62
     5
 63
     7
421
 16777215
 74
     1
 91
        4
 64
     7
 65
   257
 75
     1
175
     1
 42
1.0
 92
        8
 66
     7
 43
1.0
 76
     1
 77
     6
 78
     2
 67
     7
 79
     5
170
     0
171
     0
290
     0
174
     0
 93
        1
 44
0.0
173
     0
291
     1
 45
0.0
1001
ACAD
1000
AcDbSavedByObjectVersion
1070
     0
  0
VISUALSTYLE
  5
9A
102
{ACAD_XDICTIONARY
360
E052
102
}
102
{ACAD_REACTORS
330
99
102
}
330
99
100
AcDbVisualStyle
  2
Flat
 70
     0
 71
     2
 72
     1
 73
     1
 90
        2
 40
-0.6
 41
30.0
 62
     5
 63
     7
421
 16777215
 74
     0
 91
        4
 64
     7
 65
   257
 75
     1
175
     1
 42
1.0
 92
        8
 66
     7
 43
1.0
 76
     1
 77
     6
 78
     2
 67
     7
 79
     5
170
     0
171
     0
290
     0
174
     0
 93
        1
 44
0.0
173
     0
291
     1
 45
0.0
1001
ACAD
1000
AcDbSavedByObjectVersion
1070
     0
  0
VISUALSTYLE
  5
9B
102
{ACAD_XDICTIONARY
360
E054
102
}
102
{ACAD_REACTORS
330
99
102
}
330
99
100
AcDbVisualStyle
  2
FlatWithEdges
 70
     1
 71
     2
 72
     1
 73
     1
 90
        2
 40
-0.6
 41
30.0
 62
     5
 63
     7
421
 16777215
 74
     1
 91
        4
 64
     7
 65
   257
 75
     1
175
     1
 42
1.0
 92
        0
 66
   257
 43
1.0
 76
     1
 77
     6
 78
     2
 67
     7
 79
     5
170
     0
171
     0
290
     0
174
     0
 93
        1
 44
0.0
173
     0
291
     1
 45
0.0
1001
ACAD
1000
AcDbSavedByObjectVersion
1070
     0
  0
VISUALSTYLE
  5
9C
102
{ACAD_XDICTIONARY
360
E056
102
}
102
{ACAD_REACTORS
330
99
102
}
330
99
100
AcDbVisualStyle
  2
Gouraud
 70
     2
 71
     2
 72
     2
 73
     1
 90
        2
 40
-0.6
 41
30.0
 62
     5
 63
     7
421
 16777215
 74
     0
 91
        4
 64
     7
 65
   257
 75
     1
175
     1
 42
1.0
 92
        0
 66
     7
 43
1.0
 76
     1
 77
     6
 78
     2
 67
     7
 79
     5
170
     0
171
     0
290
     0
174
     0
 93
        1
 44
0.0
173
     0
291
     1
 45
0.0
1001
ACAD
1000
AcDbSavedByObjectVersion
1070
     0
  0
VISUALSTYLE
  5
9D
102
{ACAD_XDICTIONARY
360
E058
102
}
102
{ACAD_REACTORS
330
99
102
}
330
99
100
AcDbVisualStyle
  2
GouraudWithEdges
 70
     3
 71
     2
 72
     2
 73
     1
 90
        2
 40
-0.6
 41
30.0
 62
     5
 63
     7
421
 16777215
 74
     1
 91
        4
 64
     7
 65
   257
 75
     1
175
     1
 42
1.0
 92
        0
 66
   257
 43
1.0
 76
     1
 77
     6
 78
     2
 67
     7
 79
     5
170
     0
171
     0
290
     0
174
     0
 93
        1
 44
0.0
173
     0
291
     1
 45
0.0
1001
ACAD
1000
AcDbSavedByObjectVersion
1070
     0
  0
VISUALSTYLE
  5
1AE
102
{ACAD_XDICTIONARY
360
1AF
102
}
102
{ACAD_REACTORS
330
99
102
}
330
99
100
AcDbVisualStyle
  2
Hidden
 70
     6
 71
     1
 72
     2
 73
     2
 90
        0
 40
-0.6
 41
-30.0
 62
     5
 63
     7
421
 16777215
 74
     2
 91
        2
 64
     7
 65
   257
 75
     2
175
     1
 42
40.0
 92
        0
 66
   257
 43
1.0
 76
     1
 77
     6
 78
     2
 67
     7
 79
     3
170
     0
171
     0
290
     0
174
     0
 93
        1
 44
0.0
173
     0
291
     0
 45
0.0
1001
ACAD
1000
AcDbSavedByObjectVersion
1070
     0
  0
VISUALSTYLE
  5
173
102
{ACAD_XDICTIONARY
360
E072
102
}
102
{ACAD_REACTORS
330
99
102
}
330
99
100
AcDbVisualStyle
  2
JitterOff
 70
    20
 71
     2
 72
     2
 73
     0
 90
        0
 40
-0.6
 41
-30.0
 62
     5
 63
     7
421
 16777215
 74
     1
 91
        4
 64
     7
 65
   257
 75
     1
175
     1
 42
1.0
 92
       10
 66
     7
 43
1.0
 76
     1
 77
     6
 78
     2
 67
     7
 79
     5
170
     0
171
     0
290
     0
174
     0
 93
        1
 44
0.0
173
     0
291
     1
 45
0.0
1001
ACAD
1000
AcDbSavedByObjectVersion
1070
     0
  0
VISUALSTYLE
  5
A7
102
{ACAD_XDICTIONARY
360
E06C
102
}
102
{ACAD_REACTORS
330
99
102
}
330
99
100
AcDbVisualStyle
  2
Linepattern
 70
    14
 71
     2
 72
     2
 73
     1
 90
        0
 40
-0.6
 41
-30.0
 62
     5
 63
     7
421
 16777215
 74
     1
 91
        4
 64
     7
 65
   257
 75
     7
175
     7
 42
1.0
 92
        8
 66
     7
 43
1.0
 76
     1
 77
     6
 78
     2
 67
     7
 79
     5
170
     0
171
     0
290
     0
174
     0
 93
        1
 44
0.0
173
     0
291
     1
 45
0.0
1001
ACAD
1000
AcDbSavedByObjectVersion
1070
     0
  0
VISUALSTYLE
  5
174
102
{ACAD_XDICTIONARY
360
E074
102
}
102
{ACAD_REACTORS
330
99
102
}
330
99
100
AcDbVisualStyle
  2
OverhangOff
 70
    21
 71
     2
 72
     2
 73
     0
 90
        0
 40
-0.6
 41
-30.0
 62
     5
 63
     7
421
 16777215
 74
     1
 91
        4
 64
     7
 65
   257
 75
     1
175
     1
 42
1.0
 92
        9
 66
     7
 43
1.0
 76
     1
 77
     6
 78
     2
 67
     7
 79
     5
170
     0
171
     0
290
     0
174
     0
 93
        1
 44
0.0
173
     0
291
     1
 45
0.0
1001
ACAD
1000
AcDbSavedByObjectVersion
1070
     0
  0
VISUALSTYLE
  5
A3
102
{ACAD_XDICTIONARY
360
E064
102
}
102
{ACAD_REACTORS
330
99
102
}
330
99
100
AcDbVisualStyle
  2
Realistic
 70
     8
 71
     2
 72
     2
 73
     1
 90
        0
 40
-0.6
 41
-30.0
 62
     5
 63
     7
421
 16777215
 74
     1
 91
        0
 64
     7
 65
   257
 75
     1
175
     1
 42
1.0
 92
        8
 66
     8
424
  7895160
 43
1.0
 76
     1
 77
     6
 78
     2
 67
     7
 79
     5
170
     0
171
     0
290
     0
174
     0
 93
       13
 44
0.0
173
     0
291
     0
 45
0.0
1001
ACAD
1000
AcDbSavedByObjectVersion
1070
     0
  0
VISUALSTYLE
  5
1B1
102
{ACAD_XDICTIONARY
360
1B2
102
}
102
{ACAD_REACTORS
330
99
102
}
330
99
100
AcDbVisualStyle
  2
Shaded
 70
    27
 71
     2
 72
     2
 73
     1
 90
        2
 40
-0.6
 41
30.0
 62
     5
 63
     7
421
 16777215
 74
     0
 91
        4
 64
     7
 65
   257
 75
     1
175
     1
 42
1.0
 92
        8
 66
   257
 43
1.0
 76
     1
 77
     6
 78
     2
 67
     8
425
  7895160
 79
     3
170
     0
171
     0
290
     0
174
     0
 93
        5
 44
0.0
173
     0
291
     0
 45
0.0
1001
ACAD
1000
AcDbSavedByObjectVersion
1070
     0
  0
VISUALSTYLE
  5
1B4
102
{ACAD_XDICTIONARY
360
1B5
102
}
102
{ACAD_REACTORS
330
99
102
}
330
99
100
AcDbVisualStyle
  2
Shaded with edges
 70
    26
 71
     2
 72
     2
 73
     1
 90
        2
 40
-0.6
 41
30.0
 62
     5
 63
     7
421
 16777215
 74
     1
 91
       10
 64
     7
 65
   257
 75
     2
175
     1
 42
1.0
 92
        8
 66
   257
 43
1.0
 76
     1
 77
     6
 78
     2
 67
     7
 79
     3
170
     0
171
     0
290
     0
174
     0
 93
        5
 44
0.0
173
     0
291
     0
 45
0.0
1001
ACAD
1000
AcDbSavedByObjectVersion
1070
     0
  0
VISUALSTYLE
  5
1B7
102
{ACAD_XDICTIONARY
360
1B8
102
}
102
{ACAD_REACTORS
330
99
102
}
330
99
100
AcDbVisualStyle
  2
Shades of Gray
 70
    23
 71
     2
 72
     2
 73
     3
 90
        0
 40
-0.6
 41
-30.0
 62
     5
 63
     7
421
 16777215
 74
     2
 91
        2
 64
     7
 65
     7
 75
     1
175
     1
 42
40.0
 92
        8
 66
     7
 43
1.0
 76
     1
 77
     6
 78
     2
 67
     7
 79
     3
170
     0
171
     0
290
     0
174
     0
 93
        1
 44
0.0
173
     0
291
     0
 45
0.0
1001
ACAD
1000
AcDbSavedByObjectVersion
1070
     0
  0
VISUALSTYLE
  5
1BA
102
{ACAD_XDICTIONARY
360
1BB
102
}
102
{ACAD_REACTORS
330
99
102
}
330
99
100
AcDbVisualStyle
  2
Sketchy
 70
    24
 71
     1
 72
     2
 73
     2
 90
        0
 40
-0.6
 41
-30.0
 62
     5
 63
     7
421
 16777215
 74
     2
 91
        2
 64
     7
 65
     7
 75
     1
175
     1
 42
40.0
 92
       11
 66
     7
 43
1.0
 76
     1
 77
     6
 78
     2
 67
     7
 79
     6
170
     0
171
     0
290
     0
174
     0
 93
        1
 44
0.0
173
     0
291
     0
 45
0.0
1001
ACAD
1000
AcDbSavedByObjectVersion
1070
     0
  0
VISUALSTYLE
  5
A6
102
{ACAD_XDICTIONARY
360
E06A
102
}
102
{ACAD_REACTORS
330
99
102
}
330
99
100
AcDbVisualStyle
  2
Thicken
 70
    13
 71
     2
 72
     2
 73
     1
 90
        0
 40
-0.6
 41
-30.0
 62
     5
 63
     7
421
 16777215
 74
     1
 91
        4
 64
     7
 65
   257
 75
     1
175
     1
 42
1.0
 92
       12
 66
     7
 43
1.0
 76
     1
 77
     6
 78
     2
 67
     7
 79
     5
170
     0
171
     0
290
     0
174
     0
 93
        1
 44
0.0
173
     0
291
     1
 45
0.0
1001
ACAD
1000
AcDbSavedByObjectVersion
1070
     0
  0
VISUALSTYLE
  5
1BD
102
{ACAD_XDICTIONARY
360
1BE
102
}
102
{ACAD_REACTORS
330
99
102
}
330
99
100
AcDbVisualStyle
  2
Wireframe
 70
     5
 71
     0
 72
     2
 73
     0
 90
        0
 40
-0.6
 41
-30.0
 62
     5
 63
     7
421
 16777215
 74
     1
 91
        4
 64
     7
 65
   257
 75
     1
175
     1
 42
1.0
 92
        0
 66
   257
 43
1.0
 76
     1
 77
     6
 78
     2
 67
     7
 79
     3
170
     0
171
     0
290
     0
174
     0
 93
        1
 44
0.0
173
     0
291
     0
 45
0.0
1001
ACAD
1000
AcDbSavedByObjectVersion
1070
     0
  0
VISUALSTYLE
  5
1C0
102
{ACAD_XDICTIONARY
360
1C1
102
}
102
{ACAD_REACTORS
330
99
102
}
330
99
100
AcDbVisualStyle
  2
X-Ray
 70
    25
 71
     2
 72
     2
 73
     1
 90
        1
 40
0.5
 41
-30.0
 62
     5
 63
     7
421
 16777215
 74
     1
 91
        0
 64
     7
 65
   257
 75
     1
175
     1
 42
1.0
 92
        8
 66
     7
 43
1.0
 76
     1
 77
     6
 78
     2
 67
     7
 79
     3
170
     0
171
     0
290
     0
174
     0
 93
       13
 44
0.0
173
     0
291
     0
 45
0.0
1001
ACAD
1000
AcDbSavedByObjectVersion
1070
     0
  0
DICTIONARYVAR
  5
F0
102
{ACAD_REACTORS
330
66
102
}
330
66
100
DictionaryVariables
280
     0
  1
1:1
  0
DICTIONARYVAR
  5
EF
102
{ACAD_REACTORS
330
66
102
}
330
66
100
DictionaryVariables
280
     0
  1
Netafim Detail
  0
DICTIONARYVAR
  5
89
102
{ACAD_REACTORS
330
66
102
}
330
66
100
DictionaryVariables
280
     0
  1
STANDARD
  0
DICTIONARYVAR
  5
67
102
{ACAD_REACTORS
330
66
102
}
330
66
100
DictionaryVariables
280
     0
  1
2
  0
DICTIONARYVAR
  5
DFE7
102
{ACAD_REACTORS
330
66
102
}
330
66
100
DictionaryVariables
280
     0
  1
1
  0
DICTIONARYVAR
  5
6B
102
{ACAD_REACTORS
330
66
102
}
330
66
100
DictionaryVariables
280
     0
  1
1
  0
DICTIONARYVAR
  5
14D
102
{ACAD_REACTORS
330
66
102
}
330
66
100
DictionaryVariables
280
     0
  1
0
  0
DICTIONARYVAR
  5
14E
102
{ACAD_REACTORS
330
66
102
}
330
66
100
DictionaryVariables
280
     0
  1
0
  0
DICTIONARYVAR
  5
6D8
102
{ACAD_REACTORS
330
66
102
}
330
66
100
DictionaryVariables
280
     0
  1
0
  0
DICTIONARYVAR
  5
E03A
102
{ACAD_REACTORS
330
66
102
}
330
66
100
DictionaryVariables
280
     0
  1
1
  0
DICTIONARYVAR
  5
E03B
102
{ACAD_REACTORS
330
66
102
}
330
66
100
DictionaryVariables
280
     0
  1
100.000000
  0
DICTIONARYVAR
  5
E048
102
{ACAD_REACTORS
330
66
102
}
330
66
100
DictionaryVariables
280
     0
  1
2
  0
XRECORD
  5
E047
102
{ACAD_REACTORS
330
18F
102
}
330
18F
100
AcDbXrecord
280
     1
1000
ADE02C001
1070
     1
1070
     0
1002
{
1002
}
1002
{
1002
}
1002
{
1002
}
1000

  0
XRECORD
  5
1FB
102
{ACAD_REACTORS
330
1FA
102
}
330
1FA
100
AcDbXrecord
280
     1
330
0
  0
DMSTYLIZEDENTITIESTABLE
  5
189
102
{ACAD_REACTORS
330
179
102
}
330
179
100
AcMapDMStylizedEntitiesTable
 70
     1
  0
DICTIONARY
  5
18A
102
{ACAD_REACTORS
330
179
102
}
330
179
100
AcDbDictionary
280
     1
281
     1
  0
DATATABLE
  5
17D
102
{ACAD_REACTORS
330
179
102
}
330
179
100
AcDbDataTable
 70
     2
 90
        4
 91
       15
  1

 92
        3
  2
OriginalClassName
  3
AcMapDMDefaultStyle
  3
AcMapDMEntityStyle
  3
AcMapDMRasterStyle
  3
AcMapDMSEAnnotationStyle
  3
AcMapDMSEHatchStyle
  3
AcMapDMSETextStyle
  3
AcMapDMThematicStyle
  3
AcMapDMBaseElement
  3
AcMapDMAttachedDwgsQueryElement
  3
AcMapDMFeatureElement
  3
AcMapDMLayerElement
  3
AcMapDMCurrentDwgQueryElement
  3
AcMapDMRasterElement
  3
AcMapDMTopoElement
  3
AcMapDMTopoQueryElement
 92
        3
  2
ProxyDisplayName
  3
Default
  3
Entity
  3
Raster
  3
Annotation
  3
Hatch
  3
Text
  3
Thematic
  3
Map Base
  3
Ade Query
  3
Feature Class
  3
Layer
  3
Ade Project Query
  3
Raster
  3
Topology
  3
Topology Query
 92
        1
  2
CustomObjectType
 93
        2
 93
        2
 93
        2
 93
        2
 93
        2
 93
        2
 93
        2
 93
        1
 93
        1
 93
        1
 93
        1
 93
        1
 93
        1
 93
        1
 93
        1
 92
        1
  2
StyleCoExistanceType
 93
        1
 93
        1
 93
        1
 93
        1
 93
        1
 93
        1
 93
        2
 93
        0
 93
        0
 93
        0
 93
        0
 93
        0
 93
        0
 93
        0
 93
        0
  0
DMMAPMANAGER
  5
17A
102
{ACAD_REACTORS
330
179
102
}
330
179
100
AcDbDictionary
281
     1
  3
DisplayMap1
350
17F
100
AcDbDictionaryWithDefault
340
17F
100
AcMapDMMapManager
 70
     1
340
17F
  0
DMSTYLELIBRARY
  5
17B
102
{ACAD_REACTORS
330
179
102
}
330
179
100
AcMapDMStyleLibrary
 70
     1
 70
     1
360
17C
  0
DICTIONARY
  5
17E
102
{ACAD_REACTORS
330
179
102
}
330
179
100
AcDbDictionary
281
     1
  0
DICTIONARY
  5
6F0
330
22
100
AcDbDictionary
280
     1
281
     1
  3
AcPublish_PlotSettingsOverride
360
DFEC
  3
ADSK_XREC_LAYOUTTHUMBNAIL
360
6F1
  0
DICTIONARY
  5
E04F
330
97
100
AcDbDictionary
280
     1
281
     1
  3
ACAD_XREC_ROUNDTRIP
360
E050
  0
DICTIONARY
  5
E04D
330
96
100
AcDbDictionary
280
     1
281
     1
  3
ACAD_XREC_ROUNDTRIP
360
E04E
  0
DICTIONARY
  5
110
330
98
100
AcDbDictionary
280
     1
281
     1
  3
ACAD_XREC_ROUNDTRIP
360
E051
  3
BUMPTILE
360
112
  3
DIFFUSETILE
360
111
  3
OPACITYTILE
360
113
  3
REFLECTIONTILE
360
114
  0
DICTIONARY
  5
E008
330
181
100
AcDbDictionary
280
     1
281
     1
  3
ACAD_ROUNDTRIP_2008_TABLESTYLE_CELLSTYLEMAP
360
E04A
  3
ACAD_XREC_ROUNDTRIP
360
E078
  0
DICTIONARY
  5
104
330
87
100
AcDbDictionary
280
     1
281
     1
  3
ACAD_ROUNDTRIP_2008_TABLESTYLE_CELLSTYLEMAP
360
E049
  3
ACAD_XREC_ROUNDTRIP
360
E04C
  0
DICTIONARY
  5
E05C
330
9F
100
AcDbDictionary
280
     1
281
     1
  3
ACAD_XREC_ROUNDTRIP
360
E05D
  0
DICTIONARY
  5
E060
330
A1
100
AcDbDictionary
280
     1
281
     1
  3
ACAD_XREC_ROUNDTRIP
360
E061
  0
DICTIONARY
  5
E05E
330
A0
100
AcDbDictionary
280
     1
281
     1
  3
ACAD_XREC_ROUNDTRIP
360
E05F
  0
DICTIONARY
  5
E05A
330
9E
100
AcDbDictionary
280
     1
281
     1
  3
ACAD_XREC_ROUNDTRIP
360
E05B
  0
DICTIONARY
  5
E068
330
A5
100
AcDbDictionary
280
     1
281
     1
  3
ACAD_XREC_ROUNDTRIP
360
E069
  0
DICTIONARY
  5
E070
330
A9
100
AcDbDictionary
280
     1
281
     1
  3
ACAD_XREC_ROUNDTRIP
360
E071
  0
DICTIONARY
  5
E062
330
A2
100
AcDbDictionary
280
     1
281
     1
  3
ACAD_XREC_ROUNDTRIP
360
E063
  0
DICTIONARY
  5
E066
330
A4
100
AcDbDictionary
280
     1
281
     1
  3
ACAD_XREC_ROUNDTRIP
360
E067
  0
DICTIONARY
  5
E076
330
175
100
AcDbDictionary
280
     1
281
     1
  3
ACAD_XREC_ROUNDTRIP
360
E077
  0
DICTIONARY
  5
E06E
330
A8
100
AcDbDictionary
280
     1
281
     1
  3
ACAD_XREC_ROUNDTRIP
360
E06F
  0
DICTIONARY
  5
E052
330
9A
100
AcDbDictionary
280
     1
281
     1
  3
ACAD_XREC_ROUNDTRIP
360
E053
  0
DICTIONARY
  5
E054
330
9B
100
AcDbDictionary
280
     1
281
     1
  3
ACAD_XREC_ROUNDTRIP
360
E055
  0
DICTIONARY
  5
E056
330
9C
100
AcDbDictionary
280
     1
281
     1
  3
ACAD_XREC_ROUNDTRIP
360
E057
  0
DICTIONARY
  5
E058
330
9D
100
AcDbDictionary
280
     1
281
     1
  3
ACAD_XREC_ROUNDTRIP
360
E059
  0
DICTIONARY
  5
1AF
330
1AE
100
AcDbDictionary
280
     1
281
     1
  3
ACAD_XREC_ROUNDTRIP
360
1B0
  0
DICTIONARY
  5
E072
330
173
100
AcDbDictionary
280
     1
281
     1
  3
ACAD_XREC_ROUNDTRIP
360
E073
  0
DICTIONARY
  5
E06C
330
A7
100
AcDbDictionary
280
     1
281
     1
  3
ACAD_XREC_ROUNDTRIP
360
E06D
  0
DICTIONARY
  5
E074
330
174
100
AcDbDictionary
280
     1
281
     1
  3
ACAD_XREC_ROUNDTRIP
360
E075
  0
DICTIONARY
  5
E064
330
A3
100
AcDbDictionary
280
     1
281
     1
  3
ACAD_XREC_ROUNDTRIP
360
E065
  0
DICTIONARY
  5
1B2
330
1B1
100
AcDbDictionary
280
     1
281
     1
  3
ACAD_XREC_ROUNDTRIP
360
1B3
  0
DICTIONARY
  5
1B5
330
1B4
100
AcDbDictionary
280
     1
281
     1
  3
ACAD_XREC_ROUNDTRIP
360
1B6
  0
DICTIONARY
  5
1B8
330
1B7
100
AcDbDictionary
280
     1
281
     1
  3
ACAD_XREC_ROUNDTRIP
360
1B9
  0
DICTIONARY
  5
1BB
330
1BA
100
AcDbDictionary
280
     1
281
     1
  3
ACAD_XREC_ROUNDTRIP
360
1BC
  0
DICTIONARY
  5
E06A
330
A6
100
AcDbDictionary
280
     1
281
     1
  3
ACAD_XREC_ROUNDTRIP
360
E06B
  0
DICTIONARY
  5
1BE
330
1BD
100
AcDbDictionary
280
     1
281
     1
  3
ACAD_XREC_ROUNDTRIP
360
1BF
  0
DICTIONARY
  5
1C1
330
1C0
100
AcDbDictionary
280
     1
281
     1
  3
ACAD_XREC_ROUNDTRIP
360
1C2
  0
DMMAP
  5
17F
102
{ACAD_REACTORS
330
17A
330
182
102
}
330
17A
100
AcMapDMMap
 70
     1
  1
Default
 70
     1
330
0
100
AcMapDMMap
 70
     1
 90
        1
360
182
 90
        1
 40
1.797693134862314E+99
 70
     1
100
AcMapDMMap
 70
     2
 70
     0
 40
1.797693134862314E+99
290
     1
290
     1
 40
1.0
 40
3.0
  1
Legend
 90
        1
 40
1.797693134862314E+99
  1

 70
     0
 40
1.0
 70
     1
 90
        0
 90
        1
360
183
  0
DMSTYLECATEGORY
  5
17C
102
{ACAD_REACTORS
330
17B
102
}
330
17B
100
AcMapDMStyleCategory
 70
     1
  1
Display Styles
 70
     0
  0
PLOTSETTINGS
  5
DFEC
102
{ACAD_REACTORS
330
6F0
102
}
330
6F0
100
AcDbPlotSettings
  1

  2
Adobe PDF
  4
Letter
  6

 40
3.174999952316284
 41
3.174999952316284
 42
3.175003051757812
 43
3.17498779296875
 44
215.8999938964844
 45
279.3999938964844
 46
14.27790312490942
 47
10.059772090804
 48
0.0
 49
0.0
140
0.0
141
0.0
142
1.0
143
1.0
 70
 11940
 72
     0
 73
     1
 74
     1
  7
NETAFIM.ctb
 75
     0
147
1.157762430065653
 76
     0
 77
     2
 78
   300
148
22.74257348782844
149
0.0034861366045241
1001
ACAD_PSEXT
1000
Adobe PDF
1000
Adobe PDF Converter
1000
My Documents\*.pdf
1000

1070
     0
  0
XRECORD
  5
6F1
102
{ACAD_REACTORS
330
6F0
102
}
330
6F0
100
AcDbXrecord
280
     1
310
28000000000100008F0000000100080000000000008F0000000000000000000000010000000000000000000000000000FFFFFF000000000000000000000000000000000000000000000000000000000000000000330000006600000099000000CC000000FF00000000330000333300006633000099330000CC330000FF3300
310
0000660000336600006666000099660000CC660000FF66000000990000339900006699000099990000CC990000FF99000000CC000033CC000066CC000099CC0000CCCC0000FFCC000000FF000033FF000066FF000099FF0000CCFF0000FFFF000000003300330033006600330099003300CC003300FF003300003333003333
310
33006633330099333300CC333300FF33330000663300336633006666330099663300CC663300FF66330000993300339933006699330099993300CC993300FF99330000CC330033CC330066CC330099CC3300CCCC3300FFCC330000FF330033FF330066FF330099FF3300CCFF3300FFFF330000006600330066006600660099
310
006600CC006600FF00660000336600333366006633660099336600CC336600FF33660000666600336666006666660099666600CC666600FF66660000996600339966006699660099996600CC996600FF99660000CC660033CC660066CC660099CC6600CCCC6600FFCC660000FF660033FF660066FF660099FF6600CCFF6600
310
FFFF660000009900330099006600990099009900CC009900FF00990000339900333399006633990099339900CC339900FF33990000669900336699006666990099669900CC669900FF66990000999900339999006699990099999900CC999900FF99990000CC990033CC990066CC990099CC9900CCCC9900FFCC990000FF99
310
0033FF990066FF990099FF9900CCFF9900FFFF99000000CC003300CC006600CC009900CC00CC00CC00FF00CC000033CC003333CC006633CC009933CC00CC33CC00FF33CC000066CC003366CC006666CC009966CC00CC66CC00FF66CC000099CC003399CC006699CC009999CC00CC99CC00FF99CC0000CCCC0033CCCC0066CC
310
CC0099CCCC00CCCCCC00FFCCCC0000FFCC0033FFCC0066FFCC0099FFCC00CCFFCC00FFFFCC000000FF003300FF006600FF009900FF00CC00FF00FF00FF000033FF003333FF006633FF009933FF00CC33FF00FF33FF000066FF003366FF006666FF009966FF00CC66FF00FF66FF000099FF003399FF006699FF009999FF00CC
310
99FF00FF99FF0000CCFF0033CCFF0066CCFF0099CCFF00CCCCFF00FFCCFF0000FFFF0033FFFF0066FFFF0099FFFF00CCFFFF00FFFFFF00000000000D0D0D001A1A1A00282828003535350043434300505050005D5D5D006B6B6B00787878008686860093939300A1A1A100AEAEAE00BBBBBB00C9C9C900D6D6D600E4E4E400
310
F1F1F100FFFFFF0000000000000000000000000000000000000000000000000000000000000000000000000000000000E2E2E2E2E2E2E2E2E2E2E2E2E2E2E2E2E2E2E2E2E2E2E2E2E2E2E2E2BEBEBEBEBEBEBEBEBEBEBEBEBEBEBEBEBEBEBEBEBEBEBEBEBEBEBEBEBEBEBEBEBEBEBEBEBEBEBEBEBEBEBEBEBEBEBEBEBEBEBE
310
BEBEBEBEBEBEBEBEBEBEBEBEBEBEBEBEBEBEBEBEBEBEBEBEBEBEBEBEBEBEBEBEBEBEBEBEBEBEBEBEBEBEBEBEBEBEBEBEBEBEBEBEBEBEBEBEBEBEBEBEBEBEBEBEBEBEBEBEBEBEBEBEBEBEBEBEBEBEBEBEBEBEBEBEBEBEBEBEBEBEBEBEBEBEBEBEBEBEBEBEBEBEBEBEBEBEBEBEBEBEBEBEBEBEBEBEBEBEBEBEBEBEBEBEBEBEBE
310
BEBEBEBEBEBEBEBEBEBEBEBEBEBEBEBEBEBEBEBEBEBEE2E2E2E2E2E2E2E2E2E2E2E2E2E2E2E2E2E2E2E2E2E2E2E2E2E2E2E2E2E2E2E2E2E2E2E2E2E2E2E2E2E2E2E2E2E2E2E2E2E2E2E2E2E2E2E2BEE2E2E2E2E2E2E2E2E2E2E2E2E2E2E2E2E2BEE2E2E2E2E2E2E2E2E2E2E2E2E2E2E2E2E2E2E2E2E2E2E2E2E2E2E2E2E2E2
310
E2E2E2E2E2E2E2E2E2E2E2E2E2E2E2E2E2E2E2E2E2E2E2E2E2E2E2E2E2E2E2E2E2E2E2E2E2E2E2E2E2E2E2E2E2E2E2E2E2E2E2E2E2E2E2E2E2E2E2E2E2E2E2E2E2E2E2E2E2E2E2E2E2E2E2E2E2E2E2E2E2E2E2E2E2E2E2E2E2E2E2E2E2E2E2E2E2E2E2E2E2E2E2E2E2E2E2E2E2E2E2E2E2E2E2E2E2E2E2E2E2E2E2E2E2E2E2
310
E2E2E2E2E2E2E2E2E2E2E2E2E2E2E2E2E2E2E2E2E2E2E2BEE2E2E2E2E2E2E2E2E2E2E2E2E2E2E2E2E2E2E2E2E2E2E2E2E2E2E2E2E2E2E2E2E2E2E2E2E2E2E2E2E2E2E2E2E2E2E2E2E2E2E2E2E2E2E2E2BEE2E2E2E2E2E2E2E2E2E2E2E2E2E2E2E2E2BEE2E2E2E2E2C3C3C3C3C3C3E2E2E2E2E2E2E2E2E2E2E2E2E2E2E2E2E2
310
E2E2E2E2E2E2E2E2E2E2E2E2E2E2E2E2E2E2E2E2E2E2E2E2E2E2E2E2E2E2E2E2E2E2E2E2E2E2E2E2E2E2E2E2E2E2E2E2E2E2E2E2E2E2E2E2E2E2E2E2E2E2E2E2E2E2E2E2E2E2E2E2E2E2E2E2E2E2E2E2E2E2E2E2E2E2E2E2E2E2E2E2E2E2E2E2E2E2E2E2E2E2E2E2E2E2E2E2E2E2E2E2E2E2E2E2E2E2E2E2E2E2E2E2E2E2E2
310
E2E2E2E2E2E2E2E2E2E2E2E2E2E2E2E2E2E2E2E2E2E2E2E2E2BEE2E2E2E2E2E2E2E2E2E2E2E2E2E2E2E2E2E2E2E2E2E2E2E2E2E2E2E2E2E2E2E2E2E2E2E2E2E2E2E2E2E2E2E2E2E2E2E2E2E2E2E2E2E2E2E2BEE2E2E2E2E2E2E2E2E2E2E2E2E2E2E2E2E2BEE2E2E2C3C3E2E2E2E2E2C3C3E2E2E2E2E2DCDCDCDCDCE2E2DCDC
310
DCE2E2DCDCDCDCDCDCDCDCE2E2E2E2E2E2E2E2E2E2E2E2E2E2E2E2E2E2E2E2E2E2E2E2E2E2E2E2E2E2E2E2E2E2E2E2E2E2E2E2E2E2E2E2E2E2E2E2E2E2E2E2E2E2E2E2E2E2E2E2E2E2E2E2E2E2E2E2E2E2E2E2E2E2E2E2E2E2E2E2E2E2E2E2E2E2E2E2E2E2E2E2E2E2E2E2E2E2E2E2E2E2E2E2E2E2E2E2E2E2E2E2E2E2E2E2
310
E2E2DCDCDCDCDCE2DCDCDCE2E2E2E2E2DCDCDCDCDCE2DCE2E2E2E2BEE2E2E2E2E2E2E2E2E2E2E2E2E2E2E2E2E2E2E2E2E2E2E2E2E2E2E2E2E2E2E2E2E2E2E2E2E2E2E2E2E2E2E2E2E2E2E2E2E2E2E2E2E2E2E2E2BEE2E2E2E2E2E2E2E2E2E2E2E2E2E2E2E2E2BEE2E2E2C3E2E2E2E2E2E2E2C3C3E2E2E2E2DCDCDCDCDCE2E2
310
DCDCDCE2E2DCDCDCDCDCDCDCDCE2E2E2E2E2E2E2E2E2E2E2E2E2E2E2E2E2E2E2E2E2E2E2E2E2E2E2E2E2E2E2E2E2E2E2E2E2E2E2E2E2E2E2E2E2E2E2E2E2E2E2E2E2E2E2E2E2E2E2E2E2E2E2E2E2E2E2E2E2E2E2E2E2E2E2E2E2E2E2E2E2E2E2E2E2E2E2E2E2E2E2E2E2E2E2E2E2E2E2E2E2E2E2E2E2E2E2E2E2E2E2E2E2E2
310
E2E2E2E2DCDCDCDCDCDCDCDCE2E2DCDCE2E2DCDCDCDCDCE2DCE2E2E2E2BEE2E2E2E2E2E2E2E2E2E2E2E2E2E2E2E2E2E2E2E2E2E2E2E2E2E2E2E2E2E2E2E2E2E2E2E2E2E2E2E2E2E2E2E2E2E2E2E2E2E2E2E2E2E2E2E2BEE2BEBEE2E2BEBEBEBEBEBEBEBEBEBEE2E2BEE2E2C3E2DCDCDCDCDCDCE2E2C3E2E2E2E2DCDCDCDCDC
310
DCDCDCDCDCE2E2DCDCDCDCDCDCDCDCE2E2E2E2E2E2E2E2E2E2E2E2E2E2E2E2E2E2E2E2E2E2E2E2E2E2E2E2E2E2E2E2E2E2E2E2E2E2E2E2E2E2E2E2E2E2E2E2E2E2E2E2E2E2E2E2E2E2E2E2E2E2E2E2E2E2E2E2E2E2E2E2E2E2E2E2E2E2E2E2E2E2E2E2E2E2E2E2E2E2E2E2E2E2E2E2E2E2E2E2E2E2E2E2E2E2E2E2E2E2E2E2
310
E2E2E2E2E2E2DCDCDCDCDCDCDCDCE2E2E2E2E2E2DCDCDCDCDCDCDCE2E2E2E2BEE2E2E2E2E2E2E2E2E2E2E2E2E2E2E2E2E2E2E2E2E2E2E2E2E2E2E2E2E2E2E2E2E2E2E2E2E2E2E2E2E2E2E2E2E2E2E2E2E2E2E2E2E2E2E2E2BEE2BEBEE2E2BEBEBEBEBEBEBEBEBEBEE2E2BEE2E2C3E2DCE2DCDCE2DCE2E2E2C3E2E2E2E2E2E2
310
E2E2E2E2E2E2E2E2E2E2E2E2E2E2E2E2E2E2E2E2E2E2E2E2E2E2E2E2E2E2E2E2E2E2E2E2E2E2E2E2E2E2E2E2E2E2E2E2E2E2E2E2E2E2E2E2E2E2E2E2E2E2E2E2E2E2E2E2E2E2E2E2E2E2E2E2E2E2E2E2E2E2E2E2E2E2E2E2E2E2E2E2E2E2E2E2E2E2E2E2E2E2E2E2E2E2E2E2E2E2E2E2E2E2E2E2E2E2E2E2E2E2E2E2E2E2E2
310
E2E2E2E2E2E2E2E2E2E2E2E2E2E2E2E2E2E2E2E2E2E2E2E2E2E2E2E2E2E2E2E2E2BEE2E2E2E2E2E2E2E2E2E2E2E2E2E2E2E2E2E2E2E2E2E2E2E2E2E2E2E2E2E2E2E2E2E2E2E2E2E2E2E2E2E2E2E2E2E2E2E2E2E2E2E2E2E2E2E2BEE2BEBEE2E2BEBEBEBEBEBEBEBEBEBEE2E2BEE2E2C3E2DCE2DCDCE2DCE2E2E2C3C3C3DCDC
310
DCDCDCDCDCDCDCDCDCDCDCDCDCDCDCDCDCDCDCDCDCDCC3DCDCDCDCDCDCDCC3C3DCDCDCDCDCDCDCDCDCDCDCDCDCDCDCDCDCDCDCDCDCDCDCDCDCDCDCDCC3C3DCDCDCDCDCDCDCDCDCDCDCDCDCDCDCDCDCDCC3C3DCDCDCDCDCDCDCDCDCDCDCDCDCDCDCC3DCDCDCDCDCDCDCDCDCDCDCDCDCDCDCDCDCDCDCDCDCDCDCDCC3DCDCDCDC
310
DCDCDCC3C3DCDCDCDCDCDCDCDCDCDCDCDCC3C3C3C3C3C3C3C3C3C3C3C3C3C3E2E2E2E2BEE2E2E2E2E2E2E2E2E2E2E2E2E2E2E2E2E2E2E2E2E2E2E2E2E2E2E2E2E2E2E2E2E2E2E2E2E2E2E2E2E2E2E2E2E2E2E2E2E2E2E2E2E2E2E2E2BEE2BEBEE2E2BEBEBEBEBEBEBEBEBEBEE2E2BEE2E2C3E2DCE2DCDCE2DCE2E2E2C3E2E2
310
DCDCDCDCDCDCDCDCDCDCDCDCDCDCDCDCDCDCDCDCDCDCDCDCE2DCDCDCDCDCDCDCE2E2DCDCDCDCDCDCDCDCDCDCDCDCDCDCDCDCDCDCDCDCDCDCDCDCDCDCDCDCE2E2DCDCDCDCDCDCDCDCDCDCDCDCDCDCDCDCDCDCE2E2DCDCDCDCDCDCDCDCDCDCDCDCDCDCDCE2DCDCDCDCDCDCDCDCDCDCDCDCDCDCDCDCDCDCDCDCDCDCDCDCE2DCDC
310
DCDCDCDCDCE2E2DCDCDCDCDCDCDCDCDCDCDCDCE2E2E2E2E2E2E2E2E2E2E2E2E2E2E2E2E2E2BEE2E2E2E2E2E2E2E2E2E2E2E2E2E2E2E2E2E2E2E2E2E2E2E2E2E2E2E2E2E2E2E2E2E2E2E2E2E2E2E2E2E2E2E2E2E2E2E2E2E2E2E2E2E2E2E2BEE2BEBEE2E2BEBEBEBEBEBEBEBEBEBEE2E2BEE2E2C3E2DCDCDCDCDCDCE2E2C3C3
310
E2E2DCDCDCDCDCDCDCDCDCDCDCDCDCDCDCDCDCDCDCDCDCDCDCDCE2DCDCDCDCDCDCDCE2E2DCDCDCDCDCDCDCDCDCDCDCDCDCDCDCDCDCDCDCDCDCDCDCDCDCDCDCDCE2E2DCDCDCDCDCDCDCDCDCDCDCDCDCDCDCDCDCDCE2E2DCDCDCDCDCDCDCDCDCDCDCDCDCDCDCE2DCDCDCDCDCDCDCDCDCDCDCDCDCDCDCDCDCDCDCDCDCDCDCDCE2
310
DCDCDCDCDCDCDCE2E2DCDCDCDCDCDCDCDCDCDCDCDCE2E2E2E2E2E2E2E2E2E2E2E2E2E2E2E2E2E2BEE2E2E2E2E2E2E2E2E2E2E2E2E2E2E2E2E2E2E2E2E2E2E2E2E2E2E2E2E2E2E2E2E2E2E2E2E2E2E2E2E2E2E2E2E2E2E2E2E2E2E2E2E2E2E2E2BEE2BEBEE2E2BEBEBEBEBEBEBEBEBEBEE2E2BEE2E2C3C3E2E2E2E2E2E2E2E2
310
C3E2E2E2DCDCDCDCDCDCDCDCDCDCDCDCDCDCDCDCDCDCDCDCDCDCDCDCE2DCDCDCDCDCDCDCE2E2DCDCDCDCDCDCDCDCDCDCDCDCDCDCDCDCDCDCDCDCDCDCDCDCDCDCDCDCE2E2DCDCDCDCDCDCDCDCDCDCDCDCDCDCDCDCDCDCE2E2DCDCDCDCDCDCDCDCDCDCDCDCDCDCDCE2DCDCDCDCDCDCDCDCDCDCDCDCDCDCDCDCDCDCDCDCDCDCDC
310
DCE2DCDCDCDCDCDCDCE2E2DCDCDCDCDCDCDCDCDCDCDCDCE2E2E2E2E2E2E2E2E2E2E2E2E2E2E2E2E2E2BEE2E2E2E2E2E2E2E2E2E2E2E2E2E2E2E2E2E2E2E2E2E2E2E2E2E2E2E2E2E2E2E2E2E2E2E2E2E2E2E2E2E2E2E2E2E2E2E2E2E2E2E2E2E2E2E2BEE2BEBEE2E2BEBEBEBEBEBEBEBEBEBEE2E2BEE2E2E2C3E2E2E2E2E2E2
310
E2C3E2E2E2E2DCDCDCDCDCDCDCDCDCDCDCDCDCDCDCDCDCDCDCDCDCDCDCDCE2DCDCDCDCDCDCDCE2E2DCDCDCDCDCDCDCDCDCDCDCDCDCDCDCDCDCDCDCDCDCDCDCDCDCDCDCDCE2E2DCDCDCDCDCDCDCDCDCDCDCDCDCDCDCDCDCDCE2E2DCDCDCDCDCDCDCDCDCDCDCDCDCDCDCE2DCDCDCDCDCDCDCDCDCDCDCDCDCDCDCDCDCDCDCDCDC
310
DCDCDCE2DCDCDCDCDCDCDCE2E2DCDCDCDCDCDCDCDCDCDCDCDCE2E2E2E2E2E2E2E2E2E2E2E2E2E2E2E2E2E2BEE2E2E2E2E2E2E2E2E2E2E2E2E2E2E2E2E2E2E2E2E2E2E2E2E2E2E2E2E2E2E2E2E2E2E2E2E2E2E2E2E2E2E2E2E2E2E2E2E2E2E2E2E2E2E2E2BEE2BEBEE2E2BEBEBEBEBEBEBEBEBEBEE2E2BEE2E2E2E2C3C3E2E2
310
E2C3C3E2E2E2E2E2DCDCDCDCDCDCDCDCDCDCDCDCDCDCDCDCDCDCDCDCDCDCDCDCE2DCDCDCDCDCDCDCE2E2DCDCDCDCDCDCDCDCDCDCDCDCDCDCDCDCDCDCDCDCDCDCDCDCDCDCDCDCE2E2DCDCDCDCDCDCDCDCDCDCDCDCDCDCDCDCDCDCE2E2DCDCDCDCDCDCDCDCDCDCDCDCDCDCDCE2DCDCDCDCDCDCDCDCDCDCDCDCDCDCDCDCDCDCDC
310
DCDCDCDCDCE2DCDCDCDCDCDCDCE2E2DCDCDCDCDCDCDCDCDCDCDCDCE2E2E2E2E2E2E2E2E2E2E2E2E2E2E2E2E2E2BEE2E2E2E2E2E2E2E2E2E2E2E2E2E2E2E2E2E2E2E2E2E2E2E2E2E2E2E2E2E2E2E2E2E2E2E2E2E2E2E2E2E2E2E2E2E2E2E2E2E2E2E2E2E2E2E2BEE2BEBEE2E2BEBEBEBEBEBEBEBEBEBEE2E2BEE2E2E2E2E2E2
310
C3C3C3C3E2E2E2E2E2E2E2E2E2E2E2E2E2E2E2E2E2E2E2E2E2E2E2E2E2E2E2E2E2E2E2E2E2E2E2E2E2E2E2E2E2E2E2E2E2E2E2E2E2E2E2E2E2E2E2E2E2E2E2E2E2E2E2E2E2E2E2E2E2E2E2E2E2E2E2E2E2E2E2E2E2E2E2E2E2E2E2E2E2E2E2E2E2E2E2E2E2E2E2E2E2E2E2E2E2E2E2E2E2E2E2E2E2E2E2E2E2E2E2E2E2E2E2
310
E2E2E2E2E2E2E2E2E2E2E2E2E2E2E2E2E2E2E2E2E2E2E2E2E2E2E2E2E2E2E2E2E2E2E2E2E2E2E2E2E2E2E2E2E2E2E2BEE2E2E2E2E2E2E2E2E2E2E2E2E2E2E2E2E2E2E2E2E2E2E2E2E2E2E2E2E2E2E2E2E2E2E2E2E2E2E2E2E2E2E2E2E2E2E2E2E2E2E2E2E2E2E2E2BEE2BEBEE2E2BEBEBEBEBEBEBEBEBEBEE2E2BEE2E2E2E2
310
E2E2E2E2E2E2E2E2E2E2E2E2E2E2E2E2E2E2E2E2E2E2E2E2E2E2E2E2E2E2E2E2E2E2E2E2E2E2E2E2E2E2E2E2E2E2E2E2E2E2E2E2E2E2E2E2E2E2E2E2E2E2E2E2E2E2E2E2E2E2E2E2E2E2E2E2E2E2E2E2E2E2E2E2E2E2E2E2E2E2E2E2E2E2E2E2E2E2E2E2E2E2E2E2E2E2E2E2E2E2E2E2E2E2E2E2E2E2E2E2E2E2E2E2E2E2E2
310
E2E2E2E2E2E2E2E2E2E2E2E2E2E2E2E2E2E2E2E2E2E2E2E2E2E2E2E2E2E2E2E2E2E2E2E2E2E2E2E2E2E2E2E2E2E2E2E2E2BEE2E2E2E2E2E2E2E2E2E2E2E2E2E2E2E2E2E2E2E2E2E2E2E2E2E2E2E2E2E2E2E2E2E2E2E2E2E2E2E2E2E2E2E2E2E2E2E2E2E2E2E2E2E2E2E2BEE2BEBEE2E2BEBEBEBEBEBEBEBEBEBEE2E2BEE2E2
310
E2E2E2E2E2E2E2E2E2E2E2E2E2E2E2E2E2E2E2E2E2E2E2E2E2E2E2E2E2E2E2E2E2E2E2E2E2E2E2E2E2E2E2E2E2E2E2E2E2E2E2E2E2E2E2E2E2E2E2E2E2E2E2E2E2E2E2E2E2E2E2E2E2E2E2E2E2E2E2E2E2E2E2E2E2E2E2E2E2E2E2E2E2E2E2E2E2E2E2E2E2E2E2E2E2E2E2E2E2E2E2E2E2E2E2E2E2E2E2E2E2E2E2E2E2E2E2
310
E2E2E2E2E2E2E2E2E2E2E2E2E2E2E2E2E2E2E2E2E2E2E2E2E2E2E2E2E2E2E2E2E2E2E2E2E2E2E2E2E2E2E2E2E2E2E2E2E2E2E2BEE2E2E2E2E2E2E2E2E2E2E2E2E2E2E2E2E2E2E2E2E2E2E2E2E2E2E2E2E2E2E2E2E2E2E2E2E2E2E2E2E2E2E2E2E2E2E2E2E2E2E2E2E2E2E2E2BEE2E2E2E2E2BEBEBEBEBEBEBEBEBEBEE2E2BE
310
E2E2E2E2E2E2E2E2E2E2E2E2E2E2E2E2E2E2E2E2E2E2E2E2E2E2E2E2E2E2E2E2E2E2E2E2E2E2E2E2E2E2E2E2E2E2E2E2E2E2E2E2E2E2E2E2E2E2E2E2E2E2E2E2E2E2E2E2E2E2E2E2E2E2E2E2E2E2E2E2E2E2E2E2E2E2E2E2E2E2E2E2E2E2E2E2E2E2E2E2E2E2E2E2E2E2E2E2E2E2E2E2E2E2E2E2E2E2E2E2E2E2E2E2E2E2E2
310
E2E2E2E2E2E2E2E2E2E2E2E2E2E2E2E2E2E2E2E2E2E2E2E2BEBEBEE2E2E2E2E2E2E2E2E2E2E2E2E2E2E2E2E2E2E2E2E2E2E2E2E2E2BEE2E2E2E2E2E2E2E2E2E2E2E2E2E2E2E2E2E2E2E2E2E2E2E2E2E2E2E2E2E2E2E2E2E2E2E2E2E2E2E2E2E2E2E2E2E2E2E2E2E2E2E2E2E2E2E2BEE2E2E2E2E2BEBEBEBEBEBEBEBEBEBEE2
310
E2BEE2E2E2E2E2E2E2E2E2E2E2E2E2E2E2E2E2E2E2E2E2E2E2E2E2E2E2E2E2E2E2E2E2E2E2E2E2E2E2E2E2E2E2E2E2E2E2E2E2E2E2E2E2E2E2E2E2E2E2E2E2E2E2E2E2E2E2E2E2E2E2E2E2E2E2E2E2E2E2E2E2E2E2E2E2E2E2E2E2E2E2E2E2E2E2E2E2E2E2E2E2E2E2E2E2E2E2E2E2E2E2E2E2E2E2E2E2E2E2E2E2E2E2E2E2
310
E2E2E2E2E2E2E2E2E2E2E2E2E2E2E2E2E2E2E2E2E2E2E2E2E2E2BEBEBEE2E2E2E2E2E2E2E2E2E2E2E2E2E2E2E2E2E2E2E2E2E2E2E2E2E2BEE2E2E2E2E2E2E2E2E2E2E2E2E2E2E2E2E2E2E2E2E2E2E2E2E2E2E2E2E2E2E2E2E2E2E2E2E2E2E2E2E2E2E2E2E2E2E2E2E2E2E2E2E2E2E2E2BEE2E2E2E2E2BEBEBEBEBEBEBEBEBE
310
BEE2E2BEE2E2E2E2E2E2E2E2E2E2E2E2E2E2E2E2E2E2E2E2E2E2E2E2E2E2E2E2E2E2E2E2E2E2E2E2E2E2E2E2E2E2E2E2E2E2E2E2E2E2E2E2E2E2E2E2E2E2E2E2E2E2E2E2E2E2E2E2E2E2E2E2E2E2E2E2E2E2E2E2E2E2E2E2E2E2E2E2E2E2E2E2E2E2E2E2E2E2E2E2E2E2E2E2E2E2E2E2E2E2E2E2E2E2E2E2E2E2E2E2E2E2E2
310
E2E2E2E2E2E2E2E2E2E2E2E2E2E2E2E2E2E2E2E2E2E2E2E2E2E2E2E2BEBEBEE2BEBEBEBEBEBEBEBEBEE2BEBEBEBEBEBEBEBEBEE2E2E2E2E2E2BEE2E2E2E2E2E2E2E2E2E2E2E2E2E2E2E2E2E2E2E2E2E2E2E2E2E2E2E2E2E2E2E2E2E2E2E2E2E2E2E2E2E2E2E2E2E2E2E2E2E2E2E2E2E2E2E2BEE2E2E2E2E2BEBEBEBEBEBEBE
310
BEBEBEE2E2BEE2E2E2E2E2E2E2E2E2E2E2E2E2E2E2E2E2E2E2E2E2E2E2E2E2E2E2E2E2E2E2E2E2E2E2E2E2E2E2E2E2E2E2E2E2E2E2E2E2E2E2E2E2E2E2E2E2E2E2E2E2E2E2E2E2E2E2E2E2E2E2E2E2E2E2E2E2E2E2E2E2E2E2E2E2E2E2E2E2E2E2E2E2E2E2E2E2E2E2E2E2E2E2E2E2E2E2E2E2E2E2E2E2E2E2E2E2E2E2E2E2
310
E2E2E2E2E2E2E2E2E2E2E2E2E2E2E2E2E2E2E2E2E2E2E2E2E2E2E2E2E2E2E2BEBEBEBEBEBEBEBEBEBEBEBEBEBEBEBEBEBEBEBEBEBEE2E2E2E2E2E2BEE2E2E2E2E2E2E2E2E2E2E2E2E2E2E2E2E2E2E2E2E2E2E2E2E2E2E2E2E2E2E2E2E2E2E2E2E2E2E2E2E2E2E2E2E2E2E2E2E2E2E2E2E2E2E2E2BEE2E2E2E2E2BEBEBEBEBE
310
BEBEBEBEBEE2E2BEE2E2E2E2E2E2E2E2E2E2E2E2E2E2E2E2E2E2E2E2E2E2E2E2E2E2E2E2E2E2E2E2E2E2E2E2E2E2E2E2E2E2E2E2E2E2E2E2E2E2E2E2E2E2E2E2E2E2E2E2E2E2E2E2E2E2E2E2E2E2E2E2E2E2E2E2E2E2E2E2E2E2E2E2E2E2E2E2E2E2E2E2E2E2E2E2E2E2E2E2E2E2E2E2E2E2E2E2E2E2E2E2E2E2E2E2E2E2E2
310
E2E2E2E2E2E2E2E2E2E2E2E2E2E2E2E2E2E2E2E2E2E2E2E2E2E2E2E2E2E2E2E2E2BEBEBEBEBEBEBEBEBEBEBEBEBEBEBEBEBEBEBEBEBEBEE2E2E2E2E2E2BEE2E2E2E2E2E2E2E2E2E2E2E2E2E2E2E2E2E2E2E2E2E2E2E2E2E2E2E2E2E2E2E2E2E2E2E2E2E2E2E2E2E2E2E2E2E2E2E2E2E2E2E2E2E2E2E2BEE2E2E2E2E2BEBEBE
310
BEBEBEBEBEBEBEE2E2BEE2E2E2E2E2E2E2E2E2E2E2E2E2E2E2E2E2E2E2E2E2E2E2E2E2E2E2E2E2E2E2E2E2E2E2E2E2E2E2E2E2E2E2E2E2E2E2E2E2E2E2E2E2E2E2E2E2E2E2E2E2E2E2E2E2E2E2E2E2E2E2E2E2E2E2E2E2E2E2E2E2E2E2E2E2E2E2E2E2E2E2E2E2E2E2E2E2E2E2E2E2E2E2E2E2E2E2E2E2E2E2E2E2E2E2E2E2
310
E2E2E2E2E2E2E2E2E2E2E2E2E2E2E2E2E2E2E2E2E2E2E2E2E2E2E2E2E2E2E2E2E2E2E2E2E2BEE2BEBEBEBEBEBEBEBEBEBEBEBEBEBEBEBEBEBEBEBEE2E2E2E2BEE2E2E2E2E2E2E2E2E2E2E2E2E2E2E2E2E2E2E2E2E2E2E2E2E2E2E2E2E2E2E2E2E2E2E2E2E2E2E2E2E2E2E2E2E2E2E2E2E2E2E2E2E2E2E2E2BEE2E2E2E2E2BE
310
BEBEBEBEBEBEBEBEBEE2E2BEE2E2E2E2E2E2E2E2E2E2E2E2E2E2E2E2E2E2E2E2E2E2E2E2E2E2E2E2E2E2E2E2E2E2E2E2E2E2E2E2E2E2E2E2E2E2E2E2E2E2E2E2E2E2E2E2E2E2E2E2E2E2E2E2E2E2E2E2E2E2E2E2E2E2E2E2E2E2E2E2E2E2E2E2E2E2E2E2E2E2E2E2E2E2E2E2E2E2E2E2E2E2E2E2E2E2E2E2E2E2E2E2E2E2E2
310
E2E2E2E2E2E2E2E2E2E2E2E2E2E2E2E2E2E2E2E2E2E2E2E2E2E2E2E2E2E2E2E2E2E2E2E2E2E2E2BEE2BEBEBEBEBEBEBEBEBEBEBEBEBEBEBEBEBEBEBEBEE2E2E2E2BEE2E2E2E2E2E2E2E2E2E2E2E2E2E2E2E2E2E2E2E2E2E2E2E2E2E2E2E2E2E2E2E2E2E2E2E2E2E2E2E2E2E2E2E2E2E2E2E2E2E2E2E2E2E2E2E2BEE2E2E2E2
310
E2BEBEBEBEBEBEBEBEBEBEE2E2BEE2E2E2E2E2E2E2E2E2E2E2E2E2E2E2E2E2E2E2E2E2E2E2E2E2E2E2E2E2E2E2E2E2E2E2E2E2E2E2E2E2E2E2E2E2E2E2E2E2E2E2E2E2E2E2E2E2E2E2E2E2E2E2E2E2E2E2E2E2E2E2E2E2E2E2E2E2E2E2E2E2E2E2E2E2E2E2E2E2E2E2E2E2E2E2E2E2E2E2E2E2E2E2E2E2E2E2E2E2E2E2E2E2
310
E2E2E2E2E2E2E2E2E2E2E2E2E2E2E2E2E2E2E2E2E2E2E2E2E2E2E2E2E2E2E2E2E2E2E2E2E2E2E2E2E2E2E2E2E2E2E2E2E2E2E2E2E2E2E2E2E2E2E2E2E2E2E2E2E2E2E2BEE2E2E2E2E2E2E2E2E2E2E2E2E2E2E2E2E2E2E2E2E2E2E2E2E2E2E2E2E2E2E2E2E2E2E2E2E2E2E2E2E2E2E2E2E2E2E2E2E2E2E2E2E2E2E2E2BEE2E2
310
E2E2E2BEBEBEBEBEBEBEBEBEBEE2E2BEE2E2E2E2E2E2E2E2E2E2E2E2E2E2E2E2E2E2E2E2E2E2E2E2E2E2E2E2E2E2E2E2E2E2E2E2E2E2E2E2E2E2E2E2E2E2E2E2E2E2E2E2E2E2E2E2E2E2E2E2E2E2E2E2E2E2E2E2E2E2E2E2E2E2E2E2E2E2E2E2E2E2E2E2E2E2E2E2E2E2E2E2E2E2E2E2E2E2E2E2E2E2E2E2E2E2E2E2E2E2E2
310
E2E2E2E2E2E2E2E2E2E2E2E2E2E2E2E2E2E2E2E2E2E2E2E2E2E2E2E2E2E2E2E2E2E2E2E2E2E2E2E2E2E2E2E2E2E2E2E2E2E2E2E2E2E2E2E2E2E2E2E2E2E2E2E2E2E2E2E2E2BEE2E2E2E2E2E2E2E2E2E2E2E2E2E2E2E2E2E2E2E2E2E2E2E2E2E2E2E2E2E2E2E2E2E2E2E2E2E2E2E2E2E2E2E2E2E2E2E2E2E2E2E2E2E2E2E2BE
310
E2E2E2E2E2BEBEBEBEBEBEBEBEBEBEE2E2BEE2E2E2E2E2E2E2E2E2E2E2E2E2E2E2E2E2E2E2E2E2E2E2E2E2E2E2E2E2E2E2E2E2E2E2E2E2E2E2E2E2E2E2E2E2E2E2E2E2E2E2E2E2E2E2E2E2E2E2E2E2E2E2E2E2E2E2E2E2E2E2E2E2E2E2E2E2E2E2E2E2E2E2E2E2E2E2E2E2E2E2E2E2E2E2E2E2E2E2E2E2E2E2E2E2E2E2E2E2
310
E2E2E2E2E2E2E2E2E2E2E2E2E2E2E2E2E2E2E2E2E2E2E2E2E2E2E2E2E2E2E2E2E2E2E2E2E2E2E2E2E2E2E2E2E2E2E2E2E2E2E2E2E2E2E2E2E2E2E2E2E2E2E2E2E2E2E2E2E2E2E2BEE2E2E2E2E2E2E2E2E2E2E2E2E2E2E2E2E2E2E2E2E2E2E2E2E2E2E2E2E2E2E2E2E2E2E2E2E2E2E2E2E2E2E2E2E2E2E2E2E2E2E2E2E2E2E2
310
E2BEE2E2E2E2E2BEBEBEBEBEBEBEBEBEBEE2E2BEE2E2E2E2E2E2E2E2E2E2E2E2E2E2E2E2E2E2E2E2E2E2E2E2E2E2E2E2E2E2E2E2E2E2E2E2E2E2E2E2E2E2E2E2E2E2E2E2E2E2E2E2E2E2E2E2E2E2E2E2E2E2E2E2E2E2E2E2E2E2E2E2E2E2E2E2E2E2E2E2E2E2E2E2E2E2E2E2E2E2E2E2E2E2E2E2E2E2E2E2E2E2E2E2E2E2E2
310
E2E2E2E2E2E2E2E2E2E2E2E2E2E2E2E2E2E2E2E2E2E2E2E2E2E2E2E2E2E2E2E2E2E2E2E2E2E2E2E2E2E2E2E2E2E2E2E2E2E2E2E2E2E2E2E2E2E2E2E2E2E2E2E2E2E2E2E2E2E2E2E2E2BEE2E2E2E2E2E2E2E2E2E2E2E2E2E2E2E2E2E2E2E2E2E2E2E2E2E2E2E2E2E2E2E2E2E2E2E2E2E2E2E2E2E2E2E2E2E2E2E2E2E2E2E2E2
310
E2E2E2BEE2E2E2E2E2BEBEBEBEBEBEBEBEBEBEE2E2BEE2E2E2E2E2E2E2E2E2E2E2E2E2E2E2E2E2E2E2E2E2E2E2E2E2E2E2E2E2E2E2E2E2E2E2E2E2E2E2E2E2E2E2E2E2E2E2E2E2E2E2E2E2E2E2E2E2E2E2E2E2E2E2E2E2E2E2E2E2E2E2E2E2E2E2E2E2E2E2E2E2E2E2E2E2E2E2E2E2E2E2E2E2E2E2E2E2E2E2E2E2E2E2E2E2
310
E2E2E2E2E2E2E2E2E2E2E2E2E2E2E2E2E2E2E2E2E2E2E2E2E2E2E2E2E2E2E2E2E2E2E2E2E2E2E2E2E2E2E2E2E2E2E2E2E2E2E2E2E2E2E2E2E2E2E2E2E2E2E2E2E2E2E2E2E2E2E2E2E2E2E2BEE2E2E2E2E2E2E2E2E2E2E2E2E2E2E2E2E2E2E2E2E2E2E2E2E2E2E2E2E2E2E2E2E2E2E2E2E2E2E2E2E2E2E2E2E2E2E2E2E2E2E2
310
E2E2E2E2E2BEE2E2E2E2E2BEBEBEBEBEBEBEBEBEBEE2E2BEE2E2E2E2E2E2E2E2E2E2E2E2E2E2E2E2E2E2E2E2E2E2E2E2E2E2E2E2E2E2E2E2E2E2E2E2E2E2E2E2E2E2E2E2E2E2E2E2E2E2E2E2E2E2E2E2E2E2E2E2E2E2E2E2E2E2E2E2E2E2E2E2E2E2E2E2E2E2E2E2E2E2E2E2E2E2E2E2E2E2E2E2E2E2E2E2E2E2E2E2E2E2E2
310
E2E2E2E2E2E2E2E2E2E2E2E2E2E2E2E2E2E2E2E2E2E2E2E2E2E2E2E2E2E2E2E2E2E2E2E2E2E2E2E2E2E2E2E2E2E2E2E2E2E2E2E2E2E2E2E2E2E2E2E2E2E2E2E2E2E2E2E2E2E2E2E2E2E2E2E2E2BEE2E2E2E2E2E2E2E2E2E2E2E2E2E2E2E2E2E2E2E2E2E2E2E2E2E2E2E2E2E2E2E2E2E2E2E2E2E2E2E2E2E2E2E2E2E2E2E2E2
310
E2E2E2E2E2E2E2BEE2E2E2E2E2BEBEBEBEBEBEBEBEBEBEE2E2BEE2E2E2E2E2E2E2E2E2E2E2E2E2E2E2E2E2E2E2E2E2E2E2E2E2E2E2E2E2E2E2E2E2E2E2E2E2E2E2E2E2E2E2E2E2E2E2E2E2E2E2E2E2E2E2E2E2E2E2E2E2E2E2E2E2E2E2E2E2E2E2E2E2E2E2E2E2E2E2E2E2E2E2E2E2E2E2E2E2E2E2E2E2E2E2E2E2E2E2E2E2
310
E2E2E2E2E2E2E2E2E2E2E2E2E2E2E2E2E2E2E2E2E2E2E2E2E2E2E2E2E2E2E2E2E2E2E2E2E2E2E2E2E2E2E2E2E2E2E2E2E2E2E2E2E2E2E2E2E2E2E2E2E2E2E2E2E2E2E2E2E2E2E2E2E2E2E2E2E2E2E2BEE2E2E2E2E2E2E2E2E2E2E2E2E2E2E2E2E2E2E2E2E2E2E2E2E2E2E2E2E2E2E2E2E2E2E2E2E2E2E2E2E2E2E2E2E2E2E2
310
E2E2E2E2E2E2E2E2E2BEE2E2E2E2E2BEBEBEBEBEBEBEBEBEBEE2E2BEE2E2E2E2E2E2E2E2E2E2E2E2E2E2E2E2E2E2E2E2E2E2E2E2E2E2E2E2E2E2E2E2E2E2E2E2E2E2E2E2E2E2E2E2E2E2E2E2E2E2E2E2E2E2E2E2E2E2E2E2E2E2E2E2E2E2E2E2E2E2E2E2E2E2E2E2E2E2E2E2E2E2E2E2E2E2E2E2E2E2E2E2E2E2E2E2E2E2E2
310
E2E2E2E2E2E2E2E2E2E2E2E2E2E2E2E2E2E2E2E2E2E2E2E2E2E2E2E2E2E2E2E2E2E2E2E2E2E2E2E2E2E2E2E2E2E2E2E2E2E2E2E2E2E2E2E2E2E2E2E2E2E2E2E2E2E2E2E2E2E2E2E2E2E2E2E2E2E2E2E2E2BEE2E2E2E2E2E2E2E2E2E2E2E2E2E2E2E2E2E2E2E2E2E2E2E2E2E2E2E2E2E2E2E2E2E2E2E2E2E2E2E2E2E2E2E2E2
310
E2E2E2E2E2E2E2E2E2E2E2BEE2E2E2E2E2BEBEBEBEBEBEBEBEBEBEE2E2BEE2E2E2E2E2E2E2E2E2E2E2E2E2E2E2E2E2E2E2E2E2E2E2E2E2E2E2E2E2E2E2E2E2E2E2E2E2E2E2E2E2E2E2E2E2E2E2E2E2E2E2E2E2E2E2E2E2E2E2E2E2E2E2E2E2E2E2E2E2E2E2E2E2E2E2E2E2E2E2E2E2E2E2E2E2E2E2E2E2E2E2E2E2E2E2E2E2
310
E2E2E2E2E2E2E2E2E2E2E2E2E2E2E2E2E2E2E2E2E2E2E2E2E2E2E2E2E2E2E2E2E2E2E2E2E2E2E2E2E2E2E2E2E2E2E2E2E2E2E2E2E2E2E2E2E2E2E2E2E2E2E2E2E2E2E2E2E2E2E2E2E2E2E2E2E2E2E2E2E2E2E2BEE2E2E2E2E2E2E2E2E2E2E2E2E2E2E2E2E2E2E2E2E2E2E2E2E2E2E2E2E2E2E2E2E2E2E2E2E2E2E2E2E2E2E2
310
E2E2E2E2E2E2E2E2E2E2E2E2E2BEE2E2E2E2E2BEBEBEBEBEBEBEBEBEBEE2E2BEE2E2E2E2E2E2E2E2E2E2E2E2E2E2E2E2E2E2E2E2E2E2E2E2E2E2E2E2E2E2E2E2E2E2E2E2E2E2E2E2E2E2E2E2E2E2E2E2E2E2E2E2E2E2E2E2E2E2E2E2E2E2E2E2E2E2E2E2E2E2E2E2E2E2E2E2E2E2E2E2E2E2E2E2E2E2E2E2E2E2E2E2E2E2E2
310
E2E2E2E2E2E2E2E2E2E2E2E2E2E2E2E2E2E2E2E2E2E2E2E2E2E2E2E2E2E2E2E2E2E2E2E2E2E2E2E2E2E2E2E2E2E2E2E2E2E2E2E2E2E2E2E2E2E2E2E2E2E2E2E2E2E2E2E2E2E2E2E2E2E2E2E2E2E2E2E2E2E2E2E2E2BEE2E2E2E2E2E2E2E2E2E2E2E2E2E2E2E2E2E2E2E2E2E2E2E2E2E2E2E2E2E2E2E2E2E2E2E2E2E2E2E2E2
310
E2E2E2E2E2E2E2E2E2E2E2E2E2E2E2BEE2E2E2E2E2BEBEBEBEBEBEBEBEBEBEE2E2BEE2E2E2E2E2E2E2E2E2E2E2E2E2E2E2E2E2E2E2E2E2E2E2E2E2E2E2E2E2E2E2E2E2E2E2E2E2E2E2E2E2E2E2E2E2E2E2E2E2E2E2E2E2E2E2E2E2E2E2E2E2E2E2E2E2E2E2E2E2E2E2E2E2E2E2E2E2E2E2E2E2E2E2E2E2E2E2E2E2E2E2E2E2
310
E2E2E2E2E2E2E2E2E2E2E2E2E2E2E2E2E2E2E2E2E2E2E2E2E2E2E2E2E2E2E2E2E2E2E2E2E2E2E2E2E2E2E2E2E2E2E2E2E2E2E2E2E2E2E2E2E2E2E2E2E2E2E2E2E2E2E2E2E2E2E2E2E2E2E2E2E2E2E2E2E2E2E2E2E2E2E2BEE2E2E2E2E2E2E2E2E2E2E2E2E2E2E2E2E2E2E2E2E2E2E2E2E2E2E2E2E2E2E2E2E2E2E2E2E2E2E2
310
E2E2E2E2E2E2E2E2E2E2E2E2E2E2E2E2E2BEE2E2E2E2E2BEBEBEBEBEBEBEBEBEBEE2E2BEE2E2E2E2E2E2E2E2E2E2E2E2E2E2E2E2E2E2E2E2E2E2E2E2E2E2E2E2E2E2E2E2E2E2E2E2E2E2E2E2E2E2E2E2E2E2E2E2E2E2E2E2E2E2E2E2E2E2E2E2E2E2E2E2E2E2E2E2E2E2E2E2E2E2E2E2E2E2E2E2E2E2E2E2E2E2E2E2E2E2E2
310
E2E2E2E2E2E2E2E2E2E2E2E2E2E2E2E2E2E2E2E2E2E2E2E2E2E2E2E2E2E2E2E2E2E2E2E2E2E2E2E2E2E2E2E2E2E2E2E2E2E2E2E2E2E2E2E2E2E2E2E2E2E2E2E2E2E2E2E2E2E2E2E2E2E2E2E2E2E2E2E2E2E2E2E2E2E2E2E2E2BEE2E2E2E2E2E2E2E2E2E2E2E2E2E2E2E2E2E2E2E2E2E2E2E2E2E2E2E2E2E2E2E2E2E2E2E2E2
310
E2E2E2E2E2E2E2E2E2E2E2E2E2E2E2E2E2E2E2BEE2E2E2E2E2BEBEBEBEBEBEBEBEBEBEE2E2BEE2E2E2E2E2E2E2E2E2E2E2E2E2E2E2E2E2E2E2E2E2E2E2E2E2E2E2E2E2E2E2E2E2E2E2E2E2E2E2E2E2E2E2E2E2E2E2E2E2E2E2E2E2E2E2E2E2E2E2E2E2E2E2E2E2E2E2E2E2E2E2E2E2E2E2E2E2E2E2E2E2E2E2E2E2E2E2E2E2
310
E2E2E2E2E2E2E2E2E2E2E2E2E2E2E2E2E2E2E2E2E2E2E2E2E2E2E2E2E2E2E2E2E2E2E2E2E2E2E2E2E2E2E2E2E2E2E2E2E2E2E2E2E2E2E2E2E2E2E2E2E2E2E2E2E2E2E2E2E2E2E2E2E2E2E2E2E2E2E2E2E2E2E2E2E2E2E2E2E2E2E2BEE2E2E2E2E2E2E2E2E2E2E2E2E2E2E2E2E2E2E2E2E2E2E2E2E2E2E2E2E2E2E2E2E2E2E2
310
E2E2E2E2E2E2E2E2E2E2E2E2E2E2E2E2E2E2E2E2E2BEE2E2E2E2E2BEBEBEBEBEBEBEBEBEBEE2E2BEE2E2E2E2E2E2E2E2E2E2E2E2E2E2E2E2E2E2E2E2E2E2E2E2E2E2E2E2E2E2E2E2E2E2E2E2E2E2E2E2E2E2E2E2E2E2E2E2E2E2E2E2E2E2E2E2E2E2E2E2E2E2E2E2E2E2E2E2E2E2E2E2E2E2E2E2E2E2E2E2E2E2E2E2E2E2E2
310
E2E2E2E2E2E2E2E2E2E2E2E2E2E2E2E2E2E2E2E2E2E2E2E2E2E2E2E2E2E2E2E2E2E2E2E2E2E2E2E2E2E2E2E2E2E2E2E2E2E2E2E2E2E2E2E2E2E2E2E2E2E2E2E2E2E2E2E2E2E2E2E2E2E2E2E2E2E2E2E2E2E2E2E2E2E2E2E2E2E2E2E2E2BEE2E2E2E2E2E2E2E2E2E2E2E2E2E2E2E2E2E2E2E2E2E2E2E2E2E2E2E2E2E2E2E2E2
310
E2E2E2E2E2E2E2E2E2E2E2E2E2E2E2E2E2E2E2E2E2E2E2BEE2E2E2E2E2BEBEBEBEBEBEBEBEBEBEE2E2BEE2E2E2E2E2E2E2E2E2E2E2E2E2E2E2E2E2E2E2E2E2E2E2E2E2E2E2E2DCDCE2E2E2E2E2E2E2E2E2E2E2E2E2E2E2E2E2E2E2DCE2E2E2E2E2E2E2E2E2E2E2E2E2E2E2E2E2E2E2E2E2E2E2E2E2E2E2E2E2E2E2E2E2E2E2
310
E2E2E2E2E2E2E2E2E2E2E2E2E2E2E2E2E2E2E2E2E2E2E2E2E2E2E2E2E2E2E2E2E2E2E2E2E2E2E2E2E2E2E2E2E2E2E2E2E2E2E2E2E2E2E2E2E2E2E2E2E2E2E2E2E2E2E2E2E2E2E2E2E2E2E2E2E2E2E2E2E2E2E2E2E2E2E2E2E2E2E2E2E2E2E2BEE2E2E2E2E2E2E2E2E2E2E2E2E2E2E2E2E2E2E2E2E2E2E2E2E2E2E2E2E2E2E2
310
E2E2E2E2E2E2E2E2E2E2E2E2E2E2E2E2E2E2E2E2E2E2E2E2E2BEE2E2E2E2E2BEBEBEBEBEBEBEBEBEBEE2E2BEE2E2E2E2E2E2E2E2E2E2E2E2E2E2E2E2E2E2E2E2E2E2E2E2E2E2E2E2DCE2DCE2E2DCDCDCDCDCDCDCDCE2DCE2DCDCDCDCDCDCDCE2E2E2E2E2E2E2E2E2E2E2E2E2E2E2E2E2E2E2E2E2E2E2E2E2E2E2E2E2E2E2E2
310
E2E2E2E2E2E2E2E2E2E2E2E2E2E2E2E2E2E2E2E2E2E2E2E2E2E2E2E2E2E2E2E2E2E2E2E2E2E2E2E2E2E2E2E2E2E2E2E2E2E2E2E2E2E2E2E2E2E2E2E2E2E2E2E2E2E2E2E2E2E2E2E2E2E2E2E2E2E2E2E2E2E2E2E2E2E2E2E2E2E2E2E2E2E2E2E2E2BEE2E2E2E2E2E2E2E2E2E2E2E2E2E2E2E2E2E2E2E2E2E2E2E2E2E2E2E2E2
310
E2E2E2E2E2E2E2E2E2E2E2E2E2E2E2E2E2E2E2E2E2E2E2E2E2E2E2BEE2E2E2E2E2BEBEBEBEBEBEBEBEBEBEE2E2BEE2E2E2E2E2E2E2E2E2E2E2E2E2E2E2E2E2E2E2E2E2E2E2E2E2E2E2E2DCDCDCE2E2DCDCE2DCDCDCDCDCE2DCDCDCDCDCDCDCDCDCE2E2E2E2E2E2E2E2E2E2E2E2E2E2E2E2E2E2E2E2E2E2E2E2E2E2E2E2E2E2
310
E2E2E2E2E2E2E2E2E2E2E2E2E2E2E2E2E2E2E2E2E2E2E2E2E2E2E2E2E2E2E2E2E2E2E2E2E2E2E2E2E2E2E2E2E2E2E2E2E2E2E2E2E2E2E2E2E2E2E2E2E2E2E2E2E2E2E2E2E2E2E2E2E2E2E2E2E2E2E2E2E2E2E2E2E2E2E2E2E2E2E2E2E2E2E2E2E2E2E2BEE2E2E2E2E2E2E2E2E2E2E2E2E2E2E2E2E2E2E2E2E2E2E2E2E2E2E2
310
E2E2E2E2E2E2E2E2E2E2E2E2E2E2E2E2E2E2E2E2E2E2E2E2E2E2E2E2E2BEE2E2E2E2E2BEBEBEBEBEBEBEBEBEBEE2E2BEE2E2E2E2E2E2E2E2E2E2E2E2E2E2E2E2E2E2E2E2E2E2E2E2DCE2E2E2DCDCE2E2E2E2E2E2E2E2E2E2E2E2E2E2E2E2E2E2E2DCE2E2E2E2E2E2E2E2E2E2E2E2E2E2E2E2E2E2E2E2E2E2E2E2E2E2E2E2E2
310
E2E2E2E2E2E2E2E2E2E2E2E2E2E2E2E2E2E2E2E2E2E2E2E2E2E2E2E2E2E2E2E2E2E2E2E2E2E2E2E2E2E2E2E2E2E2E2E2E2E2E2E2E2E2E2E2E2E2E2E2E2E2E2E2E2E2E2E2E2E2E2E2E2E2E2E2E2E2E2E2E2E2E2E2E2E2E2E2E2E2E2E2E2E2E2E2E2E2E2E2E2BEE2E2E2E2E2E2E2E2E2E2E2E2E2E2E2E2E2E2E2E2E2E2E2E2E2
310
E2E2E2E2E2E2E2E2E2E2E2E2E2E2E2E2E2E2E2E2E2E2E2E2E2E2E2E2E2E2E2BEE2E2E2E2E2BEBEBEBEBEBEBEBEBEBEE2E2BEE2E2E2E2E2E2E2E2E2E2E2E2E2E2E2E2E2E2E2E2E2E2E2DCDCDCE2DCE2E2E2DCDCDCDCE2DCDCDCDCDCE2E2DCDCDCDCDCDCE2E2E2E2E2E2E2E2E2E2E2E2E2E2E2E2E2E2E2E2E2E2E2E2E2E2E2E2
310
E2E2E2E2E2E2E2E2E2E2E2E2E2E2E2E2E2E2E2E2E2E2E2E2E2E2E2E2E2E2E2E2E2E2E2E2E2E2E2E2E2E2E2E2E2E2E2E2E2E2E2E2E2E2E2E2E2E2E2E2E2E2E2E2E2E2E2E2E2E2E2E2E2E2E2E2E2E2E2E2E2E2E2E2E2E2E2E2E2E2E2E2E2E2E2E2E2E2E2E2E2E2E2BEE2E2E2E2E2E2E2E2E2E2E2E2E2E2E2E2E2E2E2E2E2E2E2
310
E2E2E2E2E2E2E2E2E2E2E2E2E2E2E2E2E2E2E2E2E2E2E2E2E2E2E2E2E2E2E2E2E2BEE2E2E2E2E2BEBEBEBEBEBEBEBEBEBEE2E2BEE2E2E2E2E2E2E2E2E2E2E2E2E2E2E2E2E2E2E2E2E2E2E2DCDCDCDCDCDCE2E2DCDCDCDCDCDCDCDCDCE2E2E2DCDCE2DCDCDCDCDCDCDCDCDCDCDCDCDCDCE2E2E2E2E2E2E2E2E2E2E2E2E2E2E2
310
E2E2E2E2E2E2E2E2E2E2E2E2E2E2E2E2E2E2E2E2E2E2E2E2E2E2E2E2E2DCDCE2E2E2E2E2E2E2E2E2E2E2E2E2E2E2E2E2E2E2E2E2E2E2E2E2E2E2E2E2E2E2E2E2E2E2E2E2E2E2E2E2E2E2E2E2E2E2E2E2E2E2E2E2E2E2E2E2E2E2E2E2E2E2E2E2E2E2E2E2E2E2E2E2E2BEE2E2E2E2E2E2E2E2E2E2E2E2E2E2E2E2E2E2E2E2E2
310
E2E2E2E2E2E2E2E2E2E2E2E2E2E2E2E2E2E2E2E2E2E2E2E2E2E2E2E2E2E2E2E2E2E2E2BEE2E2E2E2E2BEBEBEBEBEBEBEBEBEBEE2E2BEE2E2E2E2E2E2E2E2E2E2E2E2E2E2E2E2E2E2E2E2E2E2E2DCDCE2DCDCDCDCE2DCDCDCDCDCDCDCDCDCE2E2E2DCDCE2DCE2DCDCE2E2E2E2E2E2E2E2E2E2DCDCE2E2E2E2E2E2E2E2E2E2E2
310
E2DCDCE2E2E2E2E2E2E2E2E2E2E2E2E2E2E2E2E2E2E2E2E2E2E2E2E2E2E2E2E2E2E2E2E2DCE2E2E2E2E2E2E2E2DCDCE2E2E2E2E2E2E2E2E2E2E2E2E2E2E2E2E2E2E2E2E2E2E2E2E2E2E2E2E2E2E2E2E2E2E2E2E2E2E2E2E2E2E2E2E2E2E2E2E2E2E2E2E2E2E2E2E2E2E2E2BEE2E2E2E2E2E2E2E2E2E2E2E2E2E2E2E2E2E2E2
310
E2E2E2E2E2E2E2E2E2E2E2E2E2E2E2E2E2E2E2E2E2E2E2E2E2E2E2E2E2E2E2E2E2E2E2E2E2BEE2E2E2E2E2BEBEBEBEBEBEBEBEBEBEE2E2BEE2E2E2E2E2E2E2E2E2E2E2E2E2E2E2E2E2E2E2E2E2E2E2E2E2E2E2E2E2E2E2E2E2E2E2E2E2E2E2E2E2E2E2E2E2E2E2E2E2E2E2E2E2E2E2E2E2E2E2E2E2E2DCDCDCE2E2E2E2E2E2
310
E2E2E2E2E2E2E2E2E2E2E2E2E2E2E2E2E2E2E2E2E2E2E2E2E2E2E2E2E2E2E2E2E2E2DCE2E2E2E2E2E2E2E2E2E2E2E2E2E2E2E2E2E2E2E2DCE2E2E2E2E2E2E2E2E2E2E2E2E2E2E2E2E2E2E2E2E2E2E2E2E2E2E2E2E2E2E2E2E2E2E2E2E2E2E2E2E2E2E2E2E2E2E2E2E2E2E2E2E2BEE2E2E2E2E2E2E2E2E2E2E2E2E2E2E2E2E2
310
E2E2E2E2E2E2E2E2E2E2E2E2E2E2E2E2E2E2E2E2E2E2E2E2E2E2E2E2E2E2E2E2E2E2E2E2E2E2E2BEE2E2E2E2E2BEBEBEBEBEBEBEBEBEBEE2E2BEE2E2E2E2E2E2E2E2E2E2E2E2E2E2E2E2E2E2E2E2E2E2E2E2E2E2E2E2E2E2E2E2E2E2E2E2E2E2E2E2E2E2E2E2E2E2E2E2E2E2E2E2E2E2E2E2E2E2E2E2E2E2E2E2E2DCDCE2E2
310
E2E2E2E2E2E2E2DCE2E2E2E2E2E2DCE2E2E2E2E2E2E2E2E2DCE2E2E2E2E2E2E2E2E2E2E2E2E2E2E2E2E2E2E2E2E2E2E2E2E2E2E2E2E2E2E2E2E2E2E2E2E2E2E2E2E2E2E2E2E2E2E2E2E2E2E2E2E2E2E2E2E2E2E2E2E2E2E2E2E2E2E2E2E2E2E2E2E2E2E2E2E2E2E2E2E2E2E2E2E2E2BEE2E2E2E2E2E2E2E2E2E2E2E2E2E2E2
310
E2E2E2E2E2E2E2E2E2E2E2E2E2E2E2E2E2E2E2E2E2E2E2E2E2E2E2E2E2E2E2E2E2E2E2E2E2E2E2E2E2BEE2E2E2E2E2BEBEBEBEBEBEBEBEBEBEE2E2BEE2E2E2E2E2E2E2E2E2E2E2E2E2E2E2E2E2E2E2E2E2E2E2E2E2E2E2E2E2E2E2E2E2E2E2E2E2E2E2E2E2E2E2E2E2E2E2E2E2E2E2E2E2E2E2E2E2E2E2E2E2E2E2E2E2E2E2
310
DCDCDCE2E2E2E2E2E2E2E2E2E2E2E2E2E2E2E2DCE2E2E2E2E2E2E2E2E2E2E2E2E2E2E2E2E2E2DCE2E2E2E2E2E2DCE2E2E2E2E2E2E2E2E2DCE2E2E2E2E2E2E2E2E2E2E2E2E2E2E2E2E2E2E2E2E2E2E2E2E2E2E2E2E2E2E2E2E2E2E2E2E2E2E2E2E2E2E2E2E2E2E2E2E2E2E2E2E2E2E2E2E2BEE2E2E2E2E2E2E2E2E2E2E2E2E2
310
E2E2E2E2E2E2E2E2E2E2E2E2E2E2E2E2E2E2E2E2E2E2E2E2E2E2E2E2E2E2E2E2E2E2E2E2E2E2E2E2E2E2E2BEE2E2E2E2E2BEBEBEBEBEBEBEBEBEBEE2E2BEE2E2E2E2E2E2E2E2E2E2E2E2E2E2E2E2E2E2E2E2E2E2E2E2E2E2E2E2E2E2E2E2E2E2E2E2E2E2E2E2E2E2E2E2E2E2E2E2E2E2E2E2E2E2E2E2E2E2E2E2E2E2E2E2E2
310
E2E2E2E2DCDCDCDCE2E2E2E2DCE2E2E2E2E2E2E2E2E2E2E2E2E2E2E2E2E2E2E2E2E2E2E2E2E2E2E2E2E2E2E2E2E2E2DCDCE2E2E2E2E2E2E2E2E2E2E2E2E2E2E2E2E2E2E2E2E2E2E2E2E2E2E2E2E2E2E2E2E2E2E2E2E2E2E2E2E2E2E2E2E2E2E2E2E2E2E2E2E2E2E2E2E2E2E2E2E2E2E2E2E2E2BEE2E2E2E2E2E2E2E2E2E2E2
310
E2E2E2E2E2E2E2E2E2E2E2E2E2E2E2E2E2E2E2E2E2E2E2E2E2E2E2E2E2E2E2E2E2E2E2E2E2E2E2E2E2E2E2E2E2BEE2E2E2E2E2BEBEBEBEBEBEBEBEBEBEE2E2BEE2E2E2E2E2E2E2E2E2E2E2E2E2E2E2E2E2E2E2E2E2E2E2E2E2E2E2E2E2E2E2E2E2E2E2E2E2E2E2E2E2E2E2E2E2E2E2E2E2E2E2E2E2E2E2E2E2E2E2E2E2E2E2
310
E2E2E2E2E2E2E2E2E2DCDCDCE2E2E2E2E2E2DCDCE2E2E2E2E2E2E2E2DCE2E2E2E2E2E2E2E2E2E2E2E2E2E2E2E2E2E2E2E2DCDCE2E2E2E2E2E2E2E2E2E2E2E2DCE2E2E2E2E2E2E2E2E2E2E2E2E2E2E2E2E2E2E2E2E2E2E2E2E2E2E2E2E2E2E2E2E2E2E2E2E2E2E2E2E2E2E2E2E2E2E2E2E2E2E2E2E2BEE2E2E2E2E2E2E2E2E2
310
E2E2E2E2E2E2E2E2E2E2E2E2E2E2E2E2E2E2E2E2E2E2E2E2E2E2E2E2E2E2E2E2E2E2E2E2E2E2E2E2E2E2E2E2E2E2E2BEE2E2E2E2E2BEBEBEBEBEBEBEBEBEBEE2E2BEE2E2E2E2E2E2E2E2E2E2E2E2E2E2E2E2E2E2E2E2E2E2E2E2E2E2E2E2E2E2E2E2E2E2E2E2E2E2E2E2E2E2E2E2E2E2E2E2E2E2E2E2E2E2E2E2E2E2E2E2E2
310
E2E2E2E2E2E2E2E2E2E2E2E2E2E2DCDCDCDCE2E2DCE2E2DCDCE2E2E2E2E2E2E2E2E2E2BEE2BEBEE2BEDCBEBEE2BEE2BEBEE2E2DCDCE2E2E2E2E2E2E2E2E2E2E2E2DCE2E2E2E2E2E2E2E2E2E2E2E2E2E2E2E2E2E2E2E2E2E2E2E2E2E2E2E2E2E2E2E2E2E2E2E2E2E2E2E2E2E2E2E2E2E2E2E2E2E2E2E2E2BEE2E2E2E2E2E2E2
310
E2E2E2E2E2E2E2E2E2E2E2E2E2E2E2E2E2E2E2E2E2E2E2E2E2E2E2E2E2E2E2E2E2E2E2E2E2E2E2E2E2E2E2E2E2E2E2E2E2BEE2E2E2E2E2BEBEBEBEBEBEBEBEBEBEE2E2BEE2E2E2E2E2E2E2E2E2E2E2E2E2E2E2E2E2E2E2E2E2E2E2E2E2E2E2E2E2E2E2E2E2E2E2E2E2E2E2E2E2E2E2E2E2E2E2E2E2E2E2E2E2E2E2E2E2E2E2
310
E2E2E2E2E2E2E2E2E2E2E2E2E2E2E2E2E2E2DCDCE2E2DCE2E2E2E2E2E2E2E2E2E2E2E2E2BEE2E2BEBEBEBEBEE2E2BEBEBEBEBEE2E2BEBEBEE2E2E2E2E2E2E2E2E2E2DCDCE2E2E2E2E2E2E2E2E2E2E2E2E2E2E2E2E2E2E2E2E2E2E2E2E2E2E2E2E2E2E2E2E2E2E2E2E2E2E2E2E2E2E2E2E2E2E2E2E2E2E2E2E2BEE2E2E2E2E2
310
E2E2E2E2E2E2E2E2E2E2E2E2E2E2E2E2E2E2E2E2E2E2E2E2E2E2E2E2E2E2E2E2E2E2E2E2E2E2E2E2E2E2E2E2E2E2E2E2E2E2E2BEE2E2E2E2E2BEBEBEBEBEBEBEBEBEBEE2E2BEE2E2E2E2E2E2E2E2E2E2E2E2E2E2E2E2E2E2E2E2E2E2E2E2E2E2E2E2E2E2E2E2E2E2E2E2E2E2E2E2DCE2E2E2E2E2E2E2E2DCE2E2E2E2E2E2E2
310
E2E2E2E2E2E2E2E2E2E2E2E2E2E2DCDCE2DCDCE2E2E2DCDCDCE2E2E2E2E2E2E2E2E2E2E2BEE2BEBEBEBEBEBEE2BEBEBEBEBEBEE2BEBEBEBEBEBEE2BEBEBEBEE2E2E2E2E2E2DCE2E2E2E2E2E2E2E2E2E2E2E2E2E2E2E2E2E2E2E2E2E2E2E2E2E2E2E2E2E2E2E2E2E2E2E2E2E2E2E2E2E2E2E2E2E2E2E2E2E2E2E2E2BEE2E2E2
310
E2E2E2E2E2E2E2E2E2E2E2E2E2E2E2E2E2E2E2E2E2E2E2E2E2E2E2E2E2E2E2E2E2E2E2E2E2E2E2E2E2E2E2E2E2E2E2E2E2E2E2E2E2BEE2E2E2E2E2BEBEBEBEBEBEBEBEBEBEE2E2BEE2E2E2E2E2E2E2E2E2E2E2E2E2E2E2E2E2E2E2E2E2E2E2E2E2E2E2E2E2E2E2E2E2E2E2E2E2E2E2E2DCDCDCDCDCDCDCDCDCDCDCE2E2E2E2
310
E2E2E2E2E2E2E2E2E2E2E2E2E2E2E2E2E2E2E2E2E2E2E2E2DCE2E2DCDCE2E2E2E2E2BEE2BEE2E2BEBEBEE2BEE2E2BEBEBEBEE2E2E2BEBEBEBEE2E2E2BEBEBEBEE2E2E2E2E2E2E2E2E2E2E2E2E2E2E2E2E2E2E2E2E2E2E2E2E2E2E2E2E2E2E2E2E2E2E2E2E2E2E2E2E2E2E2E2E2E2E2E2E2E2E2E2E2E2E2E2E2E2E2E2E2BEE2
310
E2E2E2E2E2E2E2E2E2E2E2E2E2E2E2E2E2E2E2E2E2E2E2E2E2E2E2E2E2E2E2E2E2E2E2E2E2E2E2E2E2E2E2E2E2E2E2E2E2E2E2E2E2E2E2BEE2E2E2E2E2BEBEBEBEBEBEBEBEBEBEE2E2BEE2E2E2E2E2E2E2E2E2E2E2E2E2E2E2E2E2E2E2E2E2E2E2E2E2E2E2E2E2E2E2E2E2E2E2E2E2E2E2E2DCDCDCDCDCDCDCDCDCDCE2E2E2
310
E2E2E2E2E2E2E2E2E2E2E2E2E2E2E2E2E2E2E2E2E2E2DCE2E2E2E2E2E2E2E2DCDCDCBEBEBEE2BEE2E2BEBEBEE2BEE2E2BEBEBEBEE2E2E2BEBEBEBEE2E2E2BEBEBEBEE2E2E2E2E2E2E2E2E2E2E2E2E2E2E2E2E2DCE2E2E2E2E2E2E2E2E2E2E2E2E2E2E2E2E2E2E2E2E2E2E2E2E2E2E2E2E2E2E2E2E2E2E2E2E2E2E2E2E2E2E2
310
BEE2E2E2E2E2E2E2E2E2E2E2E2E2E2E2E2E2E2E2E2E2E2E2E2E2E2E2E2E2E2E2E2E2E2E2E2E2E2E2E2E2E2E2E2E2E2E2E2E2E2E2E2E2E2E2E2BEE2E2E2E2E2BEBEBEBEBEBEBEBEBEBEE2E2BEE2E2E2E2E2E2E2E2E2E2E2E2E2E2E2E2E2E2E2E2E2E2E2E2E2E2E2E2E2E2E2E2E2E2E2E2E2E2E2E2DCE2E2E2E2E2E2E2E2DCE2
310
E2E2E2E2E2E2E2E2E2E2E2E2E2E2E2DCE2E2E2E2E2E2E2DCDCDCDCDCDCDCDCDCDCBEBEBEDCDCBEE2DCBEBEE2BEBEE2BEBEBEE2BEE2E2BEBEBEE2BEE2E2BEBEBEDCDCDCDCBEDCDCDCDCDCDCDCDCE2E2E2E2E2E2E2E2E2E2E2E2E2E2E2E2E2E2E2E2E2E2E2E2E2E2E2E2E2E2E2E2E2E2E2E2E2E2E2E2E2E2E2E2E2E2E2E2E2E2
310
E2E2BEE2E2E2E2E2E2E2E2E2E2E2E2E2E2E2E2E2E2E2E2E2E2E2E2E2E2E2E2E2E2E2E2E2E2E2E2E2E2E2E2E2E2E2E2E2E2E2E2E2E2E2E2E2E2E2E2BEE2E2E2E2E2BEBEBEBEBEBEBEBEBEBEE2E2BEE2E2E2E2E2E2E2E2E2E2E2E2E2E2E2E2E2E2E2E2E2E2E2E2E2E2E2DCDCE2DCDCDCDCDCE2DCDCDCDCDCE2DCDCDCDCDCDCDC
310
DCDCDCDCDCDCDCDCDCDCDCDCE2E2E2E2E2E2E2E2E2E2E2E2E2DCE2E2E2BEE2E2BEE2E2E2BEDCE2BEDCDCDCDCE2E2BEBEBEE2BEE2E2BEBEBEE2BEE2E2BEBEBEE2BEE2DCE2E2E2E2BEE2E2BEE2E2E2DCE2E2E2E2E2E2E2E2E2E2E2E2E2E2E2E2E2E2E2E2E2E2E2E2E2E2E2E2E2E2E2E2E2E2E2E2E2E2E2E2E2E2E2E2E2E2E2E2
310
E2E2E2E2BEE2E2E2E2E2E2E2E2E2E2E2E2E2E2E2E2E2E2E2E2E2E2E2E2E2E2E2E2E2E2E2E2E2E2E2E2E2E2E2E2E2E2E2E2E2E2E2E2E2E2E2E2E2E2E2E2BEE2E2E2E2E2BEBEBEBEBEBEBEBEBEBEE2E2BEE2E2E2E2E2E2E2E2E2E2E2E2E2E2E2E2E2E2E2E2E2E2E2E2E2E2E2DCDCDCDCDCDCDCDCE2DCDCDCDCDCDCDCDCDCDCDC
310
DCDCDCDCE2E2E2E2E2E2E2E2E2E2DCDCDCDCE2E2E2E2E2E2E2E2E2DCBEE2E2E2BEE2E2BEE2E2E2BEBEBEBEBEBEDCDCBEBEBEBEBEBEBEBEBEBEBEBEBEBEBEBEBEBEBEBEBEBEBEE2E2E2E2BEE2E2BEE2E2DCE2E2E2DCE2E2E2E2E2E2E2E2E2E2E2E2E2E2E2E2E2E2E2E2E2E2E2E2E2E2E2E2E2E2E2E2E2E2E2E2E2E2E2E2E2E2
310
E2E2E2E2E2E2BEE2E2E2E2E2E2E2E2E2E2E2E2E2E2E2E2E2E2E2E2E2E2E2E2E2E2E2E2E2E2E2E2E2E2E2E2E2E2E2E2E2E2E2E2E2E2E2E2E2E2E2E2E2E2E2E2BEE2E2E2E2E2BEBEBEBEBEBEBEBEBEBEE2E2BEE2E2E2E2E2E2E2E2E2E2E2E2E2E2E2E2E2E2E2E2E2E2E2E2E2E2E2E2E2E2E2E2E2E2E2E2E2E2E2E2E2E2E2E2E2
310
E2E2E2E2E2E2E2E2E2E2E2E2E2E2E2E2E2E2E2E2DCDCDCDCE2E2DCDCE2DCE2BEE2E2E2BEE2E2BEE2E2BEBEBEE2E2BEBEBEBEBEE2E2BEBEBEBEBEE2E2BEBEBEBEBEE2E2BEBEBEBEE2BEE2E2E2E2BEE2E2BEE2DCE2E2E2E2E2E2E2E2E2E2E2E2E2E2E2E2E2E2E2E2E2E2E2E2E2E2E2E2E2E2E2E2E2E2E2E2E2E2E2E2E2E2E2E2
310
E2E2E2E2E2E2E2E2BEE2E2E2E2E2E2E2E2E2E2E2E2E2E2E2E2E2E2E2E2E2E2E2E2E2E2E2E2E2E2E2E2E2E2E2E2E2E2E2E2E2E2E2E2E2E2E2E2E2E2E2E2E2E2E2E2BEE2E2E2E2E2BEBEBEBEBEBEBEBEBEBEE2E2BEE2E2E2E2E2E2E2E2E2E2E2E2E2E2E2E2E2E2E2E2E2E2E2E2E2E2E2E2E2E2E2E2E2E2E2E2E2E2E2E2E2E2E2
310
E2E2E2E2E2E2E2E2E2E2E2E2E2E2E2E2E2E2E2E2E2E2E2E2E2DCDCDCDCDCDCDCE2E2BEE2E2E2BEE2E2BEE2BEE2E2BEBEBEBEBEE2E2BEBEBEBEBEE2E2BEBEBEBEBEE2E2BEBEBEBEBEDCE2E2BEE2E2E2E2BEE2E2BEDCE2E2E2E2E2E2E2E2E2E2E2E2E2E2E2E2E2E2E2E2E2E2E2E2E2E2E2E2E2E2E2E2E2E2E2E2E2E2E2E2E2E2
310
E2E2E2E2E2E2E2E2E2E2BEE2E2E2E2E2E2E2E2E2E2E2E2E2E2E2E2E2E2E2E2E2E2E2E2E2E2E2E2E2E2E2E2E2E2E2E2E2E2E2E2E2E2E2E2E2E2E2E2E2E2E2E2E2E2E2E2BEE2E2E2E2E2BEBEBEBEBEBEBEBEBEBEE2E2BEE2E2E2E2E2E2E2E2E2E2E2E2E2E2E2E2E2E2E2E2E2E2E2E2E2E2E2E2E2E2E2E2E2E2E2E2E2E2E2E2E2
310
E2E2E2E2E2E2E2E2E2E2E2E2E2E2E2E2E2E2E2E2E2E2E2E2E2E2E2DCE2E2E2E2E2DCBEE2E2BEE2E2BEE2E2E2BEDCBEBEBEE2BEE2E2BEBEBEE2BEE2E2BEBEBEBEE2E2E2BEBEBEBEE2E2E2BEBEE2E2BEBEE2E2BEE2E2E2DCE2E2E2E2E2E2E2E2E2E2E2E2E2E2E2E2E2E2E2E2E2E2E2E2E2E2E2E2E2E2E2E2E2E2E2E2E2E2E2E2
310
E2E2E2E2E2E2E2E2E2E2E2E2BEE2E2E2E2E2E2E2E2E2E2E2E2E2E2E2E2E2E2E2E2E2E2E2E2E2E2E2E2E2E2E2E2E2E2E2E2E2E2E2E2E2E2E2E2E2E2E2E2E2E2E2E2E2E2E2E2BEE2E2E2E2E2BEBEBEBEBEBEBEBEBEBEE2E2BEE2E2E2E2E2E2E2E2E2E2E2E2E2E2E2E2E2E2E2E2E2E2E2E2E2E2E2E2E2E2E2E2E2E2E2E2E2E2E2
310
E2E2E2E2E2E2E2E2E2E2E2E2E2E2E2E2E2E2E2E2E2E2E2DCDCE2E2E2DCE2E2E2E2E2E2DCE2BEE2E2BEE2E2BEE2E2E2DCBEBEBEE2BEE2E2BEBEBEE2BEE2E2BEBEBEBEE2E2E2BEBEBEBEE2E2E2BEE2BEE2E2E2BEE2E2BEE2E2DCE2E2E2E2E2E2E2E2E2E2E2E2E2E2E2E2E2E2E2E2E2E2E2E2E2E2E2E2E2E2E2E2E2E2E2E2E2E2
310
E2E2E2E2E2E2E2E2E2E2E2E2E2E2BEE2E2E2E2E2E2E2E2E2E2E2E2E2E2E2E2E2E2E2E2E2E2E2E2E2E2E2E2E2E2E2E2E2E2E2E2E2E2E2E2E2E2E2E2E2E2E2E2E2E2E2E2E2E2E2E2BEE2E2E2E2E2BEBEBEBEBEBEBEBEBEBEE2E2BEE2E2E2E2E2E2E2E2E2E2E2E2E2E2E2E2E2E2E2E2E2E2E2E2E2E2E2E2E2E2E2E2E2E2E2E2E2
310
E2E2E2E2E2E2E2E2E2E2E2E2E2E2E2E2E2E2E2E2E2E2E2E2E2E2E2E2E2E2E2E2E2E2E2E2E2DCE2BEE2E2E2BEE2E2BEE2E2BEE2BEBEE2BEBEBEE2BEBEE2BEBEBEE2BEE2E2BEBEBEE2BEE2E2BEBEBEDCE2E2BEBEE2E2BEE2E2BEE2DCE2E2DCE2E2DCE2E2E2E2E2E2E2E2E2E2E2E2E2E2E2E2E2E2E2E2E2E2E2E2E2E2E2E2E2E2
310
E2E2E2E2E2E2E2E2E2E2E2E2E2E2E2E2BEE2E2E2E2E2E2E2E2E2E2E2E2E2E2E2E2E2E2E2E2E2E2E2E2E2E2E2E2E2E2E2E2E2E2E2E2E2E2E2E2E2E2E2E2E2E2E2E2E2E2E2E2E2E2E2E2BEE2E2E2E2E2BEBEBEBEBEBEBEBEBEBEE2E2BEE2E2E2E2E2E2E2E2E2E2E2E2E2E2E2E2E2E2E2E2E2E2E2E2E2E2E2E2E2E2E2E2E2E2E2
310
E2E2E2E2E2E2E2E2E2E2E2E2E2E2E2E2E2E2E2E2E2E2E2E2E2E2E2E2E2E2E2E2E2E2DCDCE2E2E2DCE2E2BEE2E2E2BEE2E2BEE2DCE2BEBEBEE2BEE2E2BEBEBEE2BEE2E2BEBEBEE2BEE2E2BEBEBEE2BEE2DCE2E2E2E2BEE2E2BEE2E2BEDCE2E2E2E2E2E2E2E2E2E2E2E2E2E2E2E2E2E2E2E2E2E2E2E2E2E2E2E2E2E2E2E2E2E2
310
E2E2E2E2E2E2E2E2E2E2E2E2E2E2E2E2E2E2BEE2E2E2E2E2E2E2E2E2E2E2E2E2E2E2E2E2E2E2E2E2E2E2E2E2E2E2E2E2E2E2E2E2E2E2E2E2E2E2E2E2E2E2E2E2E2E2E2E2E2E2E2E2E2E2E2BEE2E2E2E2E2BEBEBEBEBEBEBEBEBEBEE2E2BEE2E2E2E2E2E2E2E2E2E2E2E2E2E2E2E2E2E2E2E2E2E2E2E2E2E2E2E2E2E2E2E2E2
310
E2E2E2E2E2E2E2E2E2E2E2E2E2E2E2E2E2E2E2E2E2E2E2E2E2E2E2E2E2E2E2DCE2E2E2E2DCE2E2E2E2DCDCDCDCDCDCDCDCDCDCDCDCBEBEBEBEBEBEBEBEBEBEBEBEE2E2E2E2BEBEBEBEBEBEE2BEE2E2E2E2E2DCDCDCDCDCDCDCDCDCDCDCDCDCE2E2E2E2E2E2E2E2E2E2E2E2E2E2E2E2E2E2E2E2E2E2E2E2E2E2E2E2E2E2E2E2
310
E2E2E2E2E2E2E2E2E2E2E2E2E2E2E2E2E2E2E2E2BEE2E2E2E2E2E2E2E2E2E2E2E2E2E2E2E2E2E2E2E2E2E2E2E2E2E2E2E2E2E2E2E2E2E2E2E2E2E2E2E2E2E2E2E2E2E2E2E2E2E2E2E2E2E2E2E2BEE2E2E2E2E2BEBEBEBEBEBEBEBEBEBEE2E2BEE2E2E2E2E2E2E2E2E2E2E2E2E2E2E2E2E2E2E2E2E2E2E2E2E2E2E2E2E2E2E2
310
E2E2E2E2E2E2E2E2E2E2E2E2E2E2E2E2E2E2E2E2E2E2E2E2E2E2E2E2E2E2E2E2E2E2E2E2E2E2DCDCE2E2E2E2E2E22D2D2DE2E2E2E2E2E2E2E2E2E2E2E2E2E2E2E2E2E2E2E2E2E2E2E2E2E2E2E2E2E2E2E2E2E2E2E2E2E2E2E2E2E22D2D2DE2E2E2E2E2E2E2E2E2E2E2E2E2E2E2E2E2E2E2E2E2E2E2E2E2E2E2E2E2E2E2E2E2
310
E2E2E2E2E2E2E2E2E2E2E2E2E2E2E2E2E2E2E2E2E2E2BEE2E2E2E2E2E2E2E2E2E2E2E2E2E2E2E2E2E2E2E2E2E2E2E2E2E2E2E2E2E2E2E2E2E2E2E2E2E2E2E2E2E2E2E2E2E2E2E2E2E2E2E2E2E2E2E2BEE2E2E2E2E2BEBEBEBEBEBEBEBEBEBEE2E2BEE2E2E2E2E2E2E2E2E2E2E2E2E2E2E2E2E2E2E2E2E2E2E2E2E2E2E2E2E2
310
E2E2E2E2E2E2E2E2E2E2E2E2E2E2E2E2E2E2E2E2E2E2E2E2E2E2E2E2E2E2E2E2E2E2E2E2E2E2E2E2E2E2E2E2E2E2E2E2E22D2DE2E2E2E2E2E2E2E2E2E2E2E2E2E2E2E2E2E2E2E2E2E2E2E2E2E2E2E2E2E2E2E2E2E2E2E2E2E2E2E2E2E22D2DE2E2E2E2E2E2E2E2E2E2E2E2E2E2E2E2E2E2E2E2E2E2E2E2E2E2E2E2E2E2E2E2
310
E2E2E2E2E2E2E2E2E2E2E2E2E2E2E2E2E2E2E2E2E2E2E2E2BEE2E2E2E2E2E2E2E2E2E2E2E2E2E2E2E2E2E2E2E2E2E2E2E2E2E2E2E2E2E2E2E2E2E2E2E2E2E2E2E2E2E2E2E2E2E2E2E2E2E2E2E2E2E2E2E2BEE2E2E2E2E2BEBEBEBEBEBEBEBEBEBEE2E2BEE2E2E2E2E2E2E2E2E2E2E2E2E2E2E2E2E2E2E2E2E2E2E2E2E2E2E2
310
E2E2E2E2E2E2E2E2E2E2E2E2E2E2E2E2E2E2E2E2E2E2E2E2E2E2E2E2E2E2E2E2E2E2E2E2E2E2E2E2E2E2E2DCE2E2E2E2E2E2E22D2DE2E2E2E2E2E2E2E2E2E2E2E2E2E2E2E2E2E2E2E2E2E2E2E2E2E2E2E2E2E2E2E2E2E2E2E2E2E2E2E2E2E22D2DE2E2E2E2E2E2E2E2E2E2E2E2E2E2E2E2E2E2E2E2E2E2E2E2E2E2E2E2E2E2
310
E2E2E2E2E2E2E2E2E2E2E2E2E2E2E2E2E2E2E2E2E2E2E2E2E2E2BEE2E2E2E2E2E2E2E2E2E2E2E2E2E2E2E2E2E2E2E2E2E2E2E2E2E2E2E2E2E2E2E2E2E2E2E2E2E2E2E2E2E2E2E2E2E2E2E2E2E2E2E2E2E2E2E2BEE2E2E2E2E2BEBEBEBEBEBEBEBEBEBEE2E2BEE2E2E2E2E2E2E2E2E2E2E2E2E2E2E2E2E2E2E2E2E2E2E2E2E2
310
E2E2E2E2E2E2E2E2E2E2E2E2E2E2E2E2E2E2E2E2E2E2E2E2E2E2E2E2E2E2E2E2E2E2E2E2E2E2E2E2E2E2E2E2E2E2E2E2E2E2E2E2E22D2DE2E2E2E2E2E2E2E2E2E2E2E22D2D2D2D2D2D2D2D2D2D2DE2E2E2E2E2E2E2E2E2E2E2E2E2E2E2E2E2E2E22D2DE2E2E2E2E2E2E2E2E2E2E2E2E2E2E2E2E2E2E2E2E2E2E2E2E2E2E2E2
310
E2E2E2E2E2E2E2E2E2E2E2E2E2E2E2E2E2E2E2E2E2E2E2E2E2E2E2E2BEE2E2E2E2E2E2E2E2E2E2E2E2E2E2E2E2E2E2E2E2E2E2E2E2E2E2E2E2E2E2E2E2E2E2E2E2E2E2E2E2E2E2E2E2E2E2E2E2E2E2E2E2E2E2E2E2BEE2E2E2E2E2BEBEBEBEBEBEBEBEBEBEE2E2BEE2E2E2E2E2E2E2E2E2E2E2E2E2E2E2E2E2E2E2E2E2E2E2
310
E2E2E2E2E2E2E2E2E2E2E2E2E2E2E2E2E2E2E2E2E2E2E2E2E2E2E2E2E2E2E2E2E2E2E2E2E2E2E22D2D2D2D2D2D2D2D2D2D2D2D2D2D2D2D2D2D2D2D2D2D2D2D2D2D2D2D2D2D2DE2E2E2E2E2E2E2E2E2E22D2DE2E2E2E2E2E2E2E2E2E2E2E2E2E2E2E2E22D2DE2E2E2E2E2E2E2E2E2E2DCE2E2E2DCE2E2E2E2E2E2E2E2E2E2E2
310
E2E2E2E2E2E2E2E2E2E2E2E2E2E2E2E2E2E2E2E2E2E2E2E2E2E2E2E2E2E2BEE2E2E2E2E2E2E2E2E2E2E2E2E2E2E2E2E2E2E2E2E2E2E2E2E2E2E2E2E2E2E2E2E2E2E2E2E2E2E2E2E2E2E2E2E2E2E2E2E2E2E2E2E2E2E2E2BEE2E2E2E2E2BEBEBEBEBEBEBEBEBEBEE2E2BEE2E2E2E2E2E2E2E2E2E2E2E2E2E2E2E2E2E2E2E2E2
310
E2E2E2E2E2E2E2E2E2E2E2E2E2E2E2E2E2E2E2E2E2E2E2E2E2E2E2E2E2E2E2E2E2E2E2E2E2E2E2E2E22DE2E22DE2E2E2E2E2E2E2E2E2E2E2E22D2DE2E2E2E2E2E2E2E2E2E2E2E22DE2E2E2E2E2E2E2E2E2E2E22DE2E2E2E2E2E2E2E2E2E2E2E2E2E2E2E2E22D2DE2E2E2E2E2E2E2E2E2E2E2E2E2E2E2E2E2E2E2E2E2E2E2E2
310
E2E2E2E2E2E2E2E2E2E2E2E2E2E2E2E2E2E2E2E2E2E2E2E2E2E2E2E2E2E2E2E2BEE2E2E2E2E2E2E2E2E2E2E2E2E2E2E2E2E2E2E2E2E2E2E2E2E2E2E2E2E2E2E2E2E2E2E2E2E2E2E2E2E2E2E2E2E2E2E2E2E2E2E2E2E2E2E2E2BEE2E2E2E2E2BEBEBEBEBEBEBEBEBEBEE2E2BEE2E2E2E2E2E2E2E2E2E2E2E2E2E2E2E2E2E2E2
310
E2E2E2E2E2E2E2E2E2E2E2E2E2E2E2E2E2E2E2E2E2E2E2E2E2E2E2E2E2E2E2E2E2E2E2E2E2E2E2E2E2E2E22D2D2D2DE2E2E2E2E2E2E2E2E2E2E2E22D2DE2E2E2E2E2E2E2E2E2E2E2E22DE2E2E2E2E2E2E2E2E2E2E22DE2E2E2E2E2E2E2E2E2E2E2E2E2E2E2E2E22D2DE2E2E2E2E2E2E2E2E2E2E2E2E2E2E2E2E2E2E2E2E2E2
310
E2E2E2E2E2E2E2E2E2E2E2E2E2E2E2E2E2E2E2E2E2E2E2E2E2E2E2E2E2E2E2E2E2E2BEE2E2E2E2E2E2E2E2E2E2E2E2E2E2E2E2E2E2E2E2E2E2E2E2E2E2E2E2E2E2E2E2E2E2E2E2E2E2E2E2E2E2E2E2E2E2E2E2E2E2E2E2E2E2E2E2BEE2E2E2E2E2BEBEBEBEBEBEBEBEBEBEE2E2BEE2E2E2E2E2E2E2E2E2E2E2E2E2E2E2E2E2
310
E2E2E2E2E2E2E2E2E2E2E2E2E2E2E2E2E2E2E2E2E2E2E2E2E2E2E2E2E2E2E2E2E2E2E2E2E2E2E2E2E2E2E2E2E22D2DE2E2E2E2E2DCDCE2E2E2E2E2E2E22DE22DE2E2E2E2E2E2E2E2E2E2E22DE2E2E2E2E2E2E2E2E2E2E22DE2E2E2E2E2E2E2E2E2E2E2E2E2E2E2E2E22DE2E2E2E2E2E2E2E2E2E2E2E2E2E2E2E2E2E2E2E2E2
310
E2E2E2E2E2E2E2E2E2E2E2E2E2E2E2E2E2E2E2E2E2E2E2E2E2E2E2E2E2E2E2E2E2E2E2E2BEE2E2E2E2E2E2E2E2E2E2E2E2E2E2E2E2E2E2E2E2E2E2E2E2E2E2E2E2E2E2E2E2E2E2E2E2E2E2E2E2E2E2E2E2E2E2E2E2E2E2E2E2E2E2E2E2BEE2E2E2E2E2BEBEBEBEBEBEBEBEBEBEE2E2BEE2E2E2E2E2E2E2E2E2E2E2E2E2E2E2
310
E2E2E2E2E2E2E2E2E2E2E2E2E2E2E2E2E2E2E2E2E2E2E2E2E2E2E2E2E2E2E2E2E2E2E2E2E2E2E2E2E2E2E2E2E2E2E22DE2E2E2E2DCDCDCE2E2E2E2E2E2E2E2E22D2DE2E2E2E2E2E2E2E2E2E2E22DE2E2E2E2E2E2E22DE2E2E22DE2E2E2E2E2E2E2E2E2E2E2E2E2E2E2E2E22DE2E2E2E2E2E2E2E2E2E2E2E2E2E2E2E2E2DCE2
310
E2E2E2E2E2E2E2E2E2E2E2E2E2E2E2E2E2E2E2E2E2E2E2E2E2E2E2E2E2E2E2E2E2E2E2E2E2E2BEE2E2E2E2E2E2E2E2E2E2E2E2E2E2E2E2E2E2E2E2E2E2E2E2E2E2E2E2E2E2E2E2E2E2E2E2E2E2E2E2E2E2E2E2E2E2E2E2E2E2E2E2E2E2E2E2BEE2E2E2E2E2BEBEBEBEBEBEBEBEBEBEE2E2BEE2E2E2E2E2E2E2E2E2E2E2E2E2
310
E2E2E2E2E2E2E2E2E2E2E2E2E2E2E2E2E2E2E2E2E2E2E2E2E2E2E2E2E2E2E2E2E2E2E2E2E2E2E2E2E2E2E2E2E2E2E2E2E22D2D2D2DDCDC2D2D2D2D2D2D2D2D2D2D2D2D2D2D2D2D2D2D2D2D2D2D2D2D2DE2E2E2E22D2D2DE22D2D2D2DE2E2E2E2E2E2E2E2E2E2E2E2E2E2E2E2E22DE2E2E2E2E2E2E2E2E2E2E2E2E2E2E2E2E2
310
E2E2E2E2E2DCE2E2E2E2E2E2E2E2E2E2E2E2E2E2E2E2E2E2E2E2E2E2E2E2E2E2E2E2E2E2E2E2E2E2BEE2E2E2E2E2E2E2E2E2E2E2E2E2E2E2E2E2E2E2E2E2E2E2E2E2E2E2E2E2E2E2E2E2E2E2E2E2E2E2E2E2E2E2E2E2E2E2E2E2E2E2E2E2E2E2E2BEE2E2E2E2E2BEBEBEBEBEBEBEBEBEBEE2E2BEE2E2E2E2E2E2E2E2E2E2E2
310
E2E2E2E2E2E2E2E2E2E2E2E2E2E2E2E2E2E2E2E2E2DCDCDCDCDCE2E2DCE2DCDCDCDCDCDCDCDCDCE2E2E2E2E2E2E2E2E2E2E2E2E2E2DCDCDCE2E2E2E2E2DCE2E2E2E2E2E22D2DE2E2E2E2E2E2E2E2E2E2E22D2D2D2D2D2DE2E2E2E2E22D2DE2E2E2E2E2E2E2E2E2E2E2E2E2E2E2E2E22DE2E2E2E2E2E2E2E2E2E2E2E2E2E2E2
310
E2E2E2DCE2E2E2E2E2E2E2E2E2E2E2E2E2E2E2E2E2E2E2E2E2E2E2E2E2E2E2E2E2E2E2E2E2E2E2E2E2E2BEE2E2E2E2E2E2E2E2E2E2E2E2E2E2E2E2E2E2E2E2E2E2E2E2E2E2E2E2E2E2E2E2E2E2E2E2E2E2E2E2E2E2E2E2E2E2E2E2E2E2E2E2E2E2E2E2BEE2E2E2E2E2BEBEBEBEBEBEBEBEBEBEE2E2BEE2E2E2E2E2E2E2E2E2
310
E2E2E2E2E2E2E2E2E2E2E2E2E2E2E2E2E2E2E2E2E2E2E2DCDCDCDCDCDCE2DCDCDCDCDCDCDCDCDCDCDCDCE2E2E2E2E2E2E2E2E2E2E2E2DCE2E2E2E2E2E2E2E2DCE2E2E2E2E2E22D2DE2E2E2E2E2E2E2E2E2E2E2E2E2E2E2E22DE2E2E2E2E22DE2E2E2E2E2E2E2E2E2E2E2E2E2E2E2E2E2E22DE2E2E2DCDCE2E2E2E2E2E2E2E2
310
E2E2E2E2E2E2E2E2E2E2E2E2E2E2E2E2E2E2E2E2E2E2E2E2E2E2E2E2E2E2E2E2E2E2E2E2E2E2E2E2E2E2E2E2BEE2E2E2E2E2E2E2E2E2E2E2E2E2E2E2E2E2E2E2E2E2E2E2E2E2E2E2E2E2E2E2E2E2E2E2E2E2E2E2E2E2E2E2E2E2E2E2E2E2E2E2E2E2E2E2E2BEE2E2E2E2E2BEBEBEBEBEBEBEBEBEBEE2E2BEE2E2E2E2E2E2E2
310
E2E2E2E2E2E2E2E2E2E2E2E2E2E2E2E2E2E2E2E2E2E2E2E2E2E2DCDCDCDCDCE2DCDCDCDCDCDCDCDCDCDCDCDCE2E2E2E2E2E2E2E2E2E2DCDCE2E2E2E2E2E2E2E2E2E2E2E2E2E2E2E22D2DE2E2E2E2E2E2E2E2E2E2E2E2E2E2E2E22DE2E2E2E2E22DE2E2E2E2E2E2E2E2E2E2E2E2E2E2E2E2E2E22DE2E2E2E2E2E2E2E2E2E2E2
310
E2E2E2E2E2E2E2E2E2E2E2E2E2E2E2E2E2E2E2E2E2E2E2E2E2E2E2E2E2E2E2E2E2E2E2E2E2E2E2E2E2E2E2E2E2E2BEE2E2E2E2E2E2E2E2E2E2E2E2E2E2E2E2E2E2E2E2E2E2E2E2E2E2E2E2E2E2E2E2E2E2E2E2E2E2E2E2E2E2E2E2E2E2E2E2E2E2E2E2E2E2E2E2BEE2E2E2E2E2BEBEBEBEBEBEBEBEBEBEE2E2BEE2E2E2E2E2
310
E2E2E2E2E2E2E2E2E2E2E2E2E2E2E2E2E2E2E2E2E2E2E2E2E2E2E2E2E2E2DCE2DCDCDCE2DCE2DCDCE2DCE2DCDCE2E2E2E2E2E2E2E2E2DCDCE2E2E2E2DCE2E2E2E2E2E2E2DCE2E2E2E2E22D2DE2E2E2E2E2E2E2E2E2E2E2E2E2E2E2E22DE2E2E2E2E22DE2E2E2E2E2E2E2E2E2E2E2E2E2E2E2E2E2E22DE2E2E2E2E2E2E2E2E2
310
E2E2E2E2E2E2E2E2E2E2E2E2E2E2E2E2E2E2E2E2E2E2E2E2E2E2E2E2E2E2E2E2E2E2E2E2E2E2E2E2E2E2E2E2E2E2E2E2BEE2E2E2E2E2E2E2E2E2E2E2E2E2E2E2E2E2E2E2E2E2E2E2E2E2E2E2E2E2E2E2E2E2E2E2E2E2E2E2E2E2E2E2E2E2E2E2E2E2E2E2E2E2E2E2E2BEE2E2E2E2E2BEBEBEBEBEBEBEBEBEBEE2E2BEE2E2E2
310
E2E2E2E2E2E2E2E2E2E2E2E2E2E2E2E2E2E2E2E2E2E2E2E2E2E2E2E2E2E2E2E2DCDCDCDCDCE2DCDCDCDCDCDCDCDCDCDCDCDCDCDCDCDCDCDCE2E2E2E2E2E2DCE2E2E2E2E2E2E2E2E2E2E2E2E22D2DE2E2E2E2E2E2E2E2E2E2E2E2E2E2E2E22DE2E2E2E2E22DE2E2E2E2E2E2E2E2E2E2E2E2E2E2E2E2E22D2DE2E2E2E2E2E2E2
310
E2E2E2E2E2E2E2E2E2E2E2E2E2E2E2E2E2E2E2E2E2E2E2E2E2E2E2E2E2E2E2E2E2E2E2E2E2E2E2E2E2E2E2E2E2E2E2E2E2E2BEE2E2E2E2E2E2E2E2E2E2E2E2E2E2E2E2E2E2E2E2E2E2E2E2E2E2E2E2E2E2E2E2E2E2E2E2E2E2E2E2E2E2E2E2E2E2E2E2E2E2E2E2E2E2E2E2BEE2E2E2E2E2BEBEBEBEBEBEBEBEBEBEE2E2BEE2
310
E2E2E2E2E2E2E2E2E2E2E2E2E2E2E2E2E2E2E2E2E2E2E2E2E2E2E2E2E2E2E2E2E2E2DCDCDCDCDCE2DCDCDCDCDCDCE2DCDCDCE2E2E2E2E2E2E2E2E2E2E2E2E2E2E2E2E2E2DCE2E2E2E2E2E2E2E2E22D2DE2E2E2E2E2E2E2E2E2E2E2E2E2E2E2E22D2D2D2D2D2D2DE2E2E2E2E2E2E2E2E2E2E2E2E2E2E2E2E22D2DE2E2E2E2E2
310
E2E2E2DCE2E2E2E2E2E2E2DCDCE2E2E2E2E2E2DCE2E2E2E2E2E2E2E2E2E2E2E2E2E2E2E2E2E2E2E2E2E2E2E2E2E2E2E2E2E2E2E2BEE2E2E2E2E2E2E2E2E2E2E2E2E2E2E2E2E2E2E2E2E2E2E2E2E2E2E2E2E2E2E2E2E2E2E2E2E2E2E2E2E2E2E2E2E2E2E2E2E2E2E2E2E2E2E2E2BEE2E2E2E2E2BEBEBEBEBEBEBEBEBEBEE2E2
310
BEE2E2E2E2E2E2E2E2E2E2E2E2E2E2E2E2E2E2E2E2E2E2E2E2E2E2E2E2E2E2E2E2E2E2E2E2E2E2E2E2E2E2E2E2E2E2E2E2E2E2E2E2E2E2E2E2E2E2E2E2E2E2E2E2E2E2E2E2E2E2E2E2E2E2E2DCE2E2E22D2DE2E2E2E2E2E2E2E2E2E2E2E2E2E2E2E2BEBEBEBEBEBEE2E2E2E2E2E2E2E2E2E2E2E2E2E2E2E2E2E22D2DE2E2E2
310
E2E2E2E2E2E2E2E2E2E2E2E2E2E2E2E2E2E2E2E2E2E2E2E2E2E2E2E2E2E2E2E2E2E2E2E2E2E2E2E2E2E2E2E2E2E2E2E2E2E2E2E2E2E2BEE2E2E2E2E2E2E2E2E2E2E2E2E2E2E2E2E2E2E2E2E2E2E2E2E2E2E2E2E2E2E2E2E2E2E2E2E2E2E2E2E2E2E2E2E2E2E2E2E2E2E2E2E2E2E2E2BEE2E2E2E2E2BEBEBEBEBEBEBEBEBEBE
310
E2E2BEE2E2E2E2E2E2E2E2E2E2E2E2E2E2E2E2E2E2E2E2E2E2E2E2E2E2E2E2E2E2E2E2E2E2E2E2E2E2E2E2E2E2E2E2E2E2E2E2E2E2E2E2E2E2E2E2E2E2E2E2E2E2E2E2E2E2E2E2E2E2E2E2E2E2E2E2E2E2E22D2DE2E2E2E2E2E2E2E2E2E2E2E2E2E2E2DCBEBEBEBEBEBEDCDCE2E2E2E2E2E2E2E2E2E2E2E2E2E2E2E22D2DE2
310
E2E2E2DCE2E2E2E2E2E2E2E2E2E2E2E2E2E2E2E2E2E2E2E2E2E2E2E2E2E2E2E2E2E2E2E2E2E2E2E2E2E2E2E2E2E2E2E2E2E2E2E2E2E2E2E2BEE2E2E2E2E2E2E2E2E2E2E2E2E2E2E2E2E2E2E2E2E2E2E2E2E2E2E2E2E2E2E2E2E2E2E2E2E2E2E2E2E2E2E2E2E2E2E2E2E2E2E2E2E2E2E2E2BEE2E2E2E2E2BEBEBEBEBEBEBEBE
310
BEBEE2E2BEE2E2E2E2E2E2E2E2E2E2E2E2E2E2E2E2E2E2E2E2E2E2E2E2E2E2E2E2E2E2E2E2E2E2E2E2E2E2E2E2E2E2E2E2E2E2E2E2E2E2E2E2E2E2E2E2E2E2E2E2E2E2E2E2E2E2E2E2E2DCE2E2E2E2E2E2E2E2E22D2DE2E2E2E2E2E2E2E2E2E2E2E2E2E2E2DCE2BEE2E2BEE2E2DCE2E2E2E2E2E2E2E2E2E2E2E2E2E2E2E22D
310
2DE2DCE2E2E2E2E2E2E2E2E2E2E2E2E2E2E2E2E2E2E2E2E2E2E2E2E2E2E2E2E2E2E2E2E2E2E2E2E2E2E2E2E2E2E2E2E2E2E2E2E2E2E2E2E2E2E2BEE2E2E2E2E2E2E2E2E2E2E2E2E2E2E2E2E2E2E2E2E2E2E2E2E2E2E2E2E2E2E2E2E2E2E2E2E2E2E2E2E2E2E2E2E2E2E2E2E2E2E2E2E2E2E2E2BEE2E2E2E2E2BEBEBEBEBEBE
310
BEBEBEBEE2E2BEE2E2E2E2E2E2E2E2E2E2E2E2E2E2E2E2E2E2E2E2E2E2E2E2E2E2E2E2E2E2E2E2E2E2E2E2E2E2E2E2E2E2E2E2E2E2E2E2E2E2E2E2E2E2E2E2E2E2E2E2E2E2E2E2E2E2E2E2E2E2E2E2E2E2E2E2E2E2E22D2DE2E2E2E2E2E2E2E2E2E2E2E2E2E2E2DCBEBEDCDCBEDCBEDCE2E2E2E2E2E2E2E2E2E2E2E2E2E2E2
310
E22D2DE2E2E2E2E2E2E2DCE2E2E2E2E2E2E2E2E2E2E2E2E2E2E2E2E2E2E2E2E2E2E2E2E2E2E2E2E2E2E2E2E2E2E2E2E2E2E2E2E2E2E2E2E2E2E2E2E2BEE2E2E2E2E2E2E2E2E2E2E2E2E2E2E2E2E2E2E2E2E2E2E2E2E2E2E2E2E2E2E2E2E2E2E2E2E2E2E2E2E2E2E2E2E2E2E2E2E2E2E2E2E2E2E2E2BEE2E2E2E2E2BEBEBEBE
310
BEBEBEBEBEBEE2E2BEE2E2E2E2E2E2E2E2E2E2E2E2E2E2E2E2E2E2E2E2E2E2E2E2E2E2E2E2E2E2E2E2E2E2E2E2E2E2E2E2E2E2E2E2E2E2E2E2E2E2E2E2E2E2E2E2E2E2E2E2E2E2E2E2E2E2E2E2E2E2E2E2E2E2E2E2DCE2E22DE22DE2E2E2E2E2E2E2E2E2E2E2E2E2E2DCE2BEE2E2BEE2E2DCE2E2E2E2E2E2E2E2E2E2E2E2E2
310
E2E2E22D2DE2E2E2E2E2E2E2E2E2E2E2E2E2E2E2E2E2E2E2E2E2E2E2E2E2E2E2E2E2E2E2E2E2E2E2E2E2E2E2E2E2E2E2E2E2E2E2E2E2E2E2E2E2E2E2E2E2BEE2E2E2E2E2E2E2E2E2E2E2E2E2E2E2E2E2E2E2E2E2E2E2E2E2E2E2E2E2E2E2E2E2E2E2E2E2E2E2E2E2E2E2E2E2E2E2E2E2E2E2E2E2E2E2E2BEE2E2E2E2E2BEBE
310
BEBEBEBEBEBEBEBEE2E2BEE2E2E2E2E2E2E2E2E2E2E2E2E2E2E2E2E2E2E2E2E2E2E2E2E2E2E2E2E2E2E2E2E2E2E2E2E2E2E2E2E2E2E2E2E2E2E2E2E2E2E2E2E2E2E2E2E2E2E2E2E2E2E2E2E2E2E2E2E2E2E2E2E2E2E2E2DCE2E22DE22DE2E2E2E2E2E2E2E2E2E2E2E2E2E22D2DBEDCDCBEDC2D2DE2E2E2E2E2E2E2E2E2E2E2
310
E2E2E2E2E22DE2E2E2E2E2E2E2E2E2E2E2E2E2E2E2E2E2E2E2E2DCE2E2E2E2E2E2DCE2E2E2E2E2E2E2E2E2E2E2E2E2E2E2E2E2E2E2E2E2E2E2E2E2E2E2E2E2E2BEE2E2E2E2E2E2E2E2E2E2E2E2E2E2E2E2E2E2E2E2E2E2E2E2E2E2E2E2E2E2E2E2E2E2E2E2E2E2E2E2E2E2E2E2E2E2E2E2E2E2E2E2E2E2E2E2BEE2E2E2E2E2
310
BEBEBEBEBEBEBEBEBEBEE2E2BEE2E2E2E2E2E2E2E2E2E2E2E2E2E2E2E2E2E2E2E2E2E2E2E2E2E2E2E2E2E2E2E2E2E2E2E2E2E2E2E2E2E2E2E2E2E2E2E2E2E2E2E2E2E2E2E2E2E2E2E2E2E2E2E2E2E2E2E2E2E2E2E2E2E2E2E2E2E2E2E22D2DE2E2E2E2E2E2E2E2E2E2E2E2E2E2BEBEBEBEBEBEBEBEBEE2E2E2E2E2E2E2E2E2
310
E2E2E2E2E2E2E22DE2E2E2E2E2DCDCE2E2E2E2DCE2E2E2E2E2E2E2E2E2E2E2E2E2E2E2DCE2E2E2E2E2E2E2E2E2E2E2E2E2E2E2E2E2E2E2E2E2E2E2E2E2E2E2E2E2E2BEE2E2E2E2E2E2E2E2E2E2E2E2E2E2E2E2E2E2E2E2E2E2E2E2E2E2E2E2E2E2E2E2E2E2E2E2E2E2E2E2E2E2E2E2E2E2E2E2E2E2E2E2E2E2E2E2BEE2E2E2
310
E2E2BEBEBEBEBEBEBEBEBEBEE2E2BEE2E2E2E2E2E2E2E2E2E2E2E2E2E2E2E2E2E2E2E2E2E2E2E2E2E2E2E2E2E2E2E2E2E2E2E2E2E2E2E2E2E2E2E2E2E2E2E2E2E2E2E2E2E2E2E2E2E2E2E2E2E2E2E2E2E2E2E2E2E2E2E2E2E2E2E2E2E2E2E22D2DE2E2E2E2E2E2E2E2E2E2E2E2E2E22DE2E2E2E2E2E2E22DE2E2E2E2E2E2E2
310
E2E2E2E2E2E2E2E2E22DE2E2E2E2E2E2E2E2E2E2E2DCE2E2E2DCE2E2E2E2E2E2E2E2E2E2E2E2E2E2E2E2E2E2E2E2E2E2E2E2E2E2E2E2E2E2E2E2E2E2E2E2E2E2E2E2E2E2BEE2E2E2E2E2E2E2E2E2E2E2E2E2E2E2E2E2E2E2E2E2E2E2E2E2E2E2E2E2E2E2E2E2E2E2E2E2E2E2E2E2E2E2E2E2E2E2E2E2E2E2E2E2E2E2E2BEE2
310
E2E2E2E2BEBEBEBEBEBEBEBEBEBEE2E2BEE2E2E2E2E2E2E2E2E2E2E2E2E2E2E2E2E2E2E2E2E2E2E2E2E2E2E2E2E2E2E2E2E2E2E2E2DCDCDCDCDCDCDCE2E2DCDCDCDCE2DCE2E2E2E2E2E2E2E2E2E2E2E2E2E2E2E2E2E2E2E2E2E2E2E2E2DCE2E2E22D2DE2E2E2E2E2E2E2E2E2E2E2E2E2E22DE2E2E2E2E2E2E22DE2E2E2E2E2
310
E2E2E2E2E2E2E2E2E2E22D2DE2E2E2E2E2E2E2E2E2E2E2DCE2E2E2DCE2E2E2E2E2E2E2E2E2E2E2E2E2E2E2E2E2E2E2E2E2E2E2E2E2E2E2E2E2E2E2E2E2E2E2E2E2E2E2E2E2E2BEE2E2E2E2E2E2E2E2E2E2E2E2E2E2E2E2E2E2E2E2E2E2E2E2E2E2E2E2E2E2E2E2E2E2E2E2E2E2E2E2E2E2E2E2E2E2E2E2E2E2E2E2E2E2E2E2
310
BEE2E2E2E2E2BEBEBEBEBEBEBEBEBEBEE2E2BEE2E2E2E2E2E2E2E2E2E2E2E2E2E2E2E2E2E2E2E2E2E2E2E2E2E2E2E2E2E2E2E2E2E2E2E2DCDCDCE2DCDCDCE2E2DCDCDCDCDCE2E2E2E2E2E2E2E2E2E2E2E2E2E2E2E2E2E2E2E2E2E2E2E2E2E2E2E2E2E22D2DE2E2E2E2E2E2E2E2E2E2E2E2E2E22DE2E2E2E2E2E2E22DE2E2E2
310
E2E2E2E2E2E2E2E2E2E2E2E22D2DE2E2E2E2E2E2E2E2E2E2E2DCE2E2E2E2E2E2E2E2E2E2E2E2E2E2DCE2E2E2E2E2E2E2E2E2E2E2E2E2E2E2E2E2E2E2E2E2E2E2E2E2E2E2E2E2E2E2BEE2E2E2E2E2E2E2E2E2E2E2E2E2E2E2E2E2E2E2E2E2E2E2E2E2E2E2E2E2E2E2E2E2E2E2E2E2E2E2E2E2E2E2E2E2E2E2E2E2E2E2E2E2E2
310
E2E2BEE2E2E2E2E2BEBEBEBEBEBEBEBEBEBEE2E2BEE2E2E2E2E2E2E2E2E2E2E2E2E2E2E2E2E2E2E2E2E2E2E2E2E2E2E2E2E2E2E2E2E2E2E2DCDCDCDCE2DCDCDCE2E2DCDCDCDCE2DCE2E2E2E2E2E2E2E2E2E2E2E2E2E2E2E2E2E2E2E2E2E2DCDCDCDCDCDCDCDC2DE2E2E2E2E2E2E2E2E2E2E2E2E2E2BEBEBEBEBEBEBEBEBEE2
310
E2E2E2E2E2E2E2E2E2E2E2E2E2E22D2DE2E2E2E2E2E2E2E2E2E2E2E2E2E2E2E2E2E2E2E2E2E2E2E2E2E2E2E2E2E2E2E2E2E2E2E2E2E2E2E2E2E2E2E2E2E2E2E2E2E2E2E2E2E2E2E2E2E2BEE2E2E2E2E2E2E2E2E2E2E2E2E2E2E2E2E2E2E2E2E2E2E2E2E2E2E2E2E2E2E2E2E2E2E2E2E2E2E2E2E2E2E2E2E2E2E2E2E2E2E2E2
310
E2E2E2E2BEE2E2E2E2E2BEBEBEBEBEBEBEBEBEBEE2E2BEE2E2E2E2E2E2E2E2E2E2E2E2E2E2E2E2E2E2E2E2E2E2E2E2E2E2E2E2E2E2E2E2E2E2E2E2E2E2E2E2E2E2E2E2E2E2E2E2E2E2E2E2E2E2E2E2E2E2E2E2E2E2E2DCDCDCDCDCDCDCDCDCDCE2E2E2E2DCDCDC2D2DE2E2E2E2E2E2E2E2E2E2E2E2E2DC2DDCDCDCDCDCDCDC
310
2DDCE2E2E2E2E2E2E2E2E2E2E2E2E2E22D2DE2E2E2DCE2E2E2E2E2E2E2E2E2E2E2E2DCE2E2E2E2E2E2E2E2E2E2E2E2E2E2E2E2E2E2E2E2E2E2E2E2E2E2E2E2E2E2E2E2E2E2E2E2E2E2E2E2E2BEE2E2E2E2E2E2E2E2E2E2E2E2E2E2E2E2E2E2E2E2E2E2E2E2E2E2E2E2E2E2E2E2E2E2E2E2E2E2E2E2E2E2E2E2E2E2E2E2E2E2
310
E2E2E2E2E2E2BEE2E2E2E2E2BEBEBEBEBEBEBEBEBEBEE2E2BEE2E2E2E2E2E2E2E2E2E2E2E2E2E2E2E2E2E2E2E2E2E2E2E2E2E2E2E2E2E2E2E2E2E2E2E2DCDCE2E2E2DCDCDCDCDCDCE2DCDCDCDCDCDCDCDCDCDCDCDCDCDCDCE2E2E2E2E2E2E2E2E2E2E2E2DCE2E2E2DC2D2DE2E2E2E2E2E2E2E2E2E2E2BEDCBEBEBEBEBEBEBE
310
BEBEBEBEDCBEE2E2E2E2E2E2E2E2E2E2E2E22D2DE2E2E2E2E2E2E2E2E2E2E2E2E2E2E2E2E2E2E2E2E2E2E2E2DCE2E2E2E2E2E2E2E2E2E2E2E2E2E2E2E2E2E2E2E2E2E2E2E2E2E2E2E2E2E2E2E2E2BEE2E2E2E2E2E2E2E2E2E2E2E2E2E2E2E2E2E2E2E2E2E2E2E2E2E2E2E2E2E2E2E2E2E2E2E2E2E2E2E2E2E2E2E2E2E2E2E2
310
E2E2E2E2E2E2E2E2BEE2E2E2E2E2BEBEBEBEBEBEBEBEBEBEE2E2BEE2E2E2E2E2E2E2E2E2E2E2E2E2E2E2E2E2E2E2E2E2E2E2E2E2E2E2E2E2E2E2E2E2E2E2E2DCDCDCDCE2DCDCDCDCDCDCDCDCDCDCE2E2E2E2E2E2E2E2E2E2E2E2E2E2E2E2E2E2E2E2DCE2E2E2E2E2E2E2E22D2DE2E2E2E2E2E2E2E2E2E2E2E22DDC2D2D2D2D
310
2D2D2D2D2DDC2DE2E2E2E2E2E2E2E2E2E2E2E2E22D2DE2E2E2E2E2E2E2E2E2E2E2E2E2E2E2E2E2E2E2E2E2E2E2E2DCE2E2E2E2E2E2E2E2E2E2E2E2E2E2E2E2E2E2E2E2E2E2E2E2E2E2E2E2E2E2E2E2E2BEE2E2E2E2E2E2E2E2E2E2E2E2E2E2E2E2E2E2E2E2E2E2E2E2E2E2E2E2E2E2E2E2E2E2E2E2E2E2E2E2E2E2E2E2E2E2
310
E2E2E2E2E2E2E2E2E2E2BEE2E2E2E2E2BEBEBEBEBEBEBEBEBEBEE2E2BEE2E2E2E2E2E2E2E2E2E2E2E2E2E2E2E2E2E2E2E2E2E2E2E2E2E2E2E2E2E2E2E2E2E2E2E2E2E2DCDCE2E2E2E2E2E2E2E2E2E2E2E2E2E2E2E2E2E2E2E2E2E2E2E2E2E2E2E2E2DCE2E2E2E2E2DCDCE2E2E22D2DE2E2E2E2E2E2E2E2E2E2E2E22DE2E2E2
310
E2E2E2E2E2E2E2E22DE2E2E2E2E2E2E2E2E2E2E2E2E22D2DE2E2E2E2E2DCDCE2E2E2E2E2E2E2E2E2E2E2E2DCE2E2E2E2E2E2E2E2E2E2E2E2E2E2E2E2E2E2E2E2E2E2E2E2E2E2E2E2E2E2E2E2E2E2E2E2E2E2BEE2E2E2E2E2E2E2E2E2E2E2E2E2E2E2E2E2E2E2E2E2E2E2E2E2E2E2E2E2E2E2E2E2E2E2E2E2E2E2E2E2E2E2E2
310
E2E2E2E2E2E2E2E2E2E2E2E2BEE2E2E2E2E2BEBEBEBEBEBEBEBEBEBEE2E2BEE2E2E2E2E2E2E2E2E2E2E2E2E2E2E2E2E2E2E2E2E2E2E2E2E2E2E2E2E2E2E2E2E2E2E2E2E2E2E2E2E2E2E2E2E2E2E2E2E2E2E2E2E2E2E2E2E2E2E2E2E2E2E2E2E2E2E2E2E2E2E2E2E2E2E2E2E2E2E2E22D2DE2E2E2E2E2E2E2E2E2E2E2E22DE2
310
E2E2E2E2E2E2E2E2E2E22DE2E2E2E2E2E2E2E2E2E2E2E2E22D2DE2E2E2E2E2E2E2E2E2E2DCE2E2E2E2E2E2E2E2E2E2E2E2DCE2E2E2E2E2E2E2E2E2E2E2E2E2E2E2E2E2E2E2E2E2E2E2E2E2E2E2E2E2E2E2E2E2E2BEE2E2E2E2E2E2E2E2E2E2E2E2E2E2E2E2E2E2E2E2E2E2E2E2E2E2E2E2E2E2E2E2E2E2E2E2E2E2E2E2E2E2
310
E2E2E2E2E2E2E2E2E2E2E2E2E2E2BEE2E2E2E2E2BEBEBEBEBEBEBEBEBEBEE2E2BEE2E2E2E2E2E2E2E2E2E2E2E2E2E2E2E2E2E2E2E2E2E2E2E2E2E2E2E2E2E2E2E2E2E2E2E2E2E2E2E2E2E2E2E2E2E2E2E2E2E2E2E2E2E2E2E2E2E2E2E2E2E2E2E2E2E2E2E2E2E2E2E2E2E2E2E2E2E2E2E22DE22DE2E2E2E2E2E2E2DCDCDCDC
310
DCDCE2E2E2E2E2E2E2E2E2E22DE2E2E2E2E2E2E2E2E2E2E2E2E22D2DE2E2E2E2E2E2DCE2E2E2E2E2E2E2E2E2E2E2E2DCE2E2E2E2E2E2E2E2E2E2E2E2E2E2E2E2E2E2E2E2E2E2E2E2E2E2E2E2E2E2E2E2E2E2E2E2E2E2BEE2E2E2E2E2E2E2E2E2E2E2E2E2E2E2E2E2E2E2E2E2E2E2E2E2E2E2E2E2E2E2E2E2E2E2E2E2E2E2E2
310
E2E2E2E2E2E2E2E2E2E2E2E2E2E2E2E2BEE2E2E2E2E2BEBEBEBEBEBEBEBEBEBEE2E2BEE2E2E2E2E2E2E2E2E2E2E2E2E2E2E2E2E2E2E2E2E2E2E2E2E2E2E2E2E2E2E2E2E2E2E2E2E2E2E2E2E2E2E2E2E2E2E2E2E2E2E2E2E2E2E2E2E2E2E2E2E2E2E2E2E2E2E2E2E2E2E2E2E2E2E2E2E2E2E2E22DE22DE2DCDCDCDCDCDCE2E2
310
E2E22DE2E2E2E2E2E2E2E2E2E2E22DE2E2E2E2E2E2E2E2E2E2E2E2E22D2DE2E2E2E2E2E2E2E2E2E2E2E2E2E2E2E2E2E2E2E2E2E2E2E2E2DCE2E2E2E2E2E2E2E2E2E2E2E2E2E2E2E2E2E2E2E2E2E2E2E2E2E2E2E2E2E2E2E2BEE2E2E2E2E2E2E2E2E2E2E2E2E2E2E2E2E2E2E2E2E2E2E2E2E2E2E2E2E2E2E2E2E2E2E2E2E2E2
310
E2E2E2E2E2E2E2E2E2E2E2E2E2E2E2E2E2E2BEE2E2E2E2E2BEBEBEBEBEBEBEBEBEBEE2E2BEE2E2E2E2E2E2E2E2E2E2E2E2E2E2E2E2E2E2E2E2E2E2E2E2E2E2E2E2E2E2E2E2DCDCDCDCDCDCDCDCE2E2E2DCDCDCDCDCDCDCDCE2E2E2E2E2E2E2E2E2E2E2E2E2E2E2E2E2E2E2E2E2E2E2E2E2E2E2DCDCDCDCDCDCE2E2E2E2E2E2
310
E2E2E2E22D2DE2E2E2E2E2E2E2E2E22DE2E2E2E2E2E2E2E2E2E2E2E2E22DE22DE2E2E2E2E2E2E2E2E2E2E2E2E2E2E2E2DCE2E2E2E2E2DCE2E2E2E2E2E2E2E2E2E2E2E2E2E2E2E2E2E2E2E2E2E2E2E2E2E2E2E2E2E2E2E2E2E2E2BEE2E2E2E2E2E2E2E2E2E2E2E2E2E2E2E2E2E2E2E2E2E2E2E2E2E2E2E2E2E2E2E2E2E2E2E2
310
E2E2E2E2E2E2E2E2E2E2E2E2E2E2E2E2E2E2E2E2BEE2E2E2E2E2BEBEBEBEBEBEBEBEBEBEE2E2BEE2E2E2E2E2E2E2E2E2E2E2E2E2E2E2E2E2E2E2E2E2E2E2E2E2E2E2E2E2E2E2E2DCDCDCDCE2DCDCDCDCE2E2DCDCDCE2DCDCDCE2E2E2E2E2E2E2E2E2E2E2E2E2E2E2E2E2E2E2E2E2E2E2DCDCDCDCDCE2E22DE22DE2E2E2E2E2
310
E2E2E2E2E2E2E2E22DE2E2E2E2E2E2E22DE2E2E2E2E2E2E2E2E2E2E2E2E2E22D2DE2E2E2E2E2E2E2E2E2E2E2E2E2E2E2E2E2E2E2E2E2E2E2E2E2E2E2E2E2E2E2E2E2E2E2E2E2E2E2E2E2E2E2E2E2E2E2E2E2E2E2E2E2E2E2E2E2E2E2BEE2E2E2E2E2E2E2E2E2E2E2E2E2E2E2E2E2E2E2E2E2E2E2E2E2E2E2E2E2E2E2E2E2E2
310
E2E2E2E2E2E2E2E2E2E2E2E2E2E2E2E2E2E2E2E2E2E2BEE2E2E2E2E2BEBEBEBEBEBEBEBEBEBEE2E2BEE2E2E2E2E2E2E2E2E2E2E2E2E2E2E2E2E2E2E2E2E2E2E2E2E2E2E2E2E2E2E2E2DCDCDCDCE2DCDCDCDCE2DCDCDCDCE2DCDCDCDCE2E2E2E2E2E2E2E2E2E2E2E2E2E2E2E2DCDCDCDCDCDCDCE2E2DCE2E2E2E22D2DE2E2E2
310
E2E2E2E2E2E2E2E2E2E2E22DBEBEBEBEBE2DE2E2E2E2E2E2E2E2E2E2E2E2E2E2E22D2DE2E2E2E2E2E2E2E2E2E2E2E2E2E2E2E2E2E2DCE2E2E2E2E2E2E2E2E2E2E2E2E2E2E2E2E2E2E2E2E2E2E2E2E2E2E2E2E2E2E2E2E2E2E2E2E2E2E2E2BEE2E2E2E2E2E2E2E2E2E2E2E2E2E2E2E2E2E2E2E2E2E2E2E2E2E2E2E2E2E2E2E2
310
E2E2E2E2E2E2E2E2E2E2E2E2E2E2E2E2E2E2E2E2E2E2E2E2BEE2E2E2E2E2BEBEBEBEBEBEBEBEBEBEE2E2BEE2E2E2E2E2E2E2E2E2E2E2E2E2E2E2E2E2E2E2E2E2E2E2E2E2E2E2E2E2E2E2E2E2DCE2DCDCDCDCE2DCDCDCDCDCDCDCDCDCDCDCE2E2E2E2E2E2E2E2E2E2DCDCDCDCDCDCE2E2E2E2E2DCE2E2E2DCE2E2E2E22D2DE2
310
E2E2E2E2E2E2E2E2E2E2E2E2E22D2D2D2D2D2D2DE2E2E2E2E2E2E2E2E2E2E2E2E2E2E22D2DE2E2E2E2E2E2E2DCE2E2E2DCDCE2E2E2E2E2DCE2E2E2E2E2E2E2E2E2E2E2E2E2E2E2E2E2E2E2E2E2E2E2E2E2E2E2E2E2E2E2E2E2E2E2E2E2E2E2E2BEE2E2E2E2E2E2E2E2E2E2E2E2E2E2E2E2E2E2E2E2E2E2E2E2E2E2E2E2E2E2
310
E2E2E2E2E2E2E2E2E2E2E2E2E2E2E2E2E2E2E2E2E2E2E2E2E2E2BEE2E2E2E2E2BEBEBEBEBEBEBEBEBEBEE2E2BEE2E2E2E2E2E2E2E2E2E2E2E2E2E2E2E2E2E2E2E2E2E2E2E2E2E2E2E2E2E2E2E2E2E2DCDCDCDCDCE2DCDCDCDCDCE2DCDCDCDCDCDCDCDCDCDCDCDCDCDCDCE2E2E2E2E2E2E2E2E2E2E2E2E2E2E2E2DCDCDCE22D
310
2D2DE2E2E2E2E2E2E2E2E2E2E2E2E2E2E2E2E2E2E2E2E2E2E2E2E2E2E2E2E2E2E2E2E2E22D2D2DE2E2E2DCE2E2E2E2E2E2E2E2E2E2E2E2E2E2E2E2E2E2E2E2E2E2E2E2E2E2E2E2E2E2E2E2E2E2E2E2E2E2E2E2E2E2E2E2E2E2E2E2E2E2E2E2E2E2E2BEE2E2E2E2E2E2E2E2E2E2E2E2E2E2E2E2E2E2E2E2E2E2E2E2E2E2E2E2
310
E2E2E2E2E2E2E2E2E2E2E2E2E2E2E2E2E2E2E2E2E2E2E2E2E2E2E2E2BEE2E2E2E2E2BEBEBEBEBEBEBEBEBEBEE2E2BEE2E2E2E2E2E2E2E2E2E2E2E2E2E2E2E2E2E2E2E2E2E2E2E2E2E2E2E2E2E2E2E2E2E2DCDCDCDCE2DCE2DCE2DCDCE2DCDCDCE2DCE2E2E2E2E2E2E2E2E2E2E2E2E2E2E2E2E2E2E2E2E2E2E2E2E2E2E2E2E2
310
E22D2D2D2D2D2D2D2D2D2D2D2D2D2D2D2D2D2D2D2D2D2D2D2D2D2D2D2D2D2D2D2D2D2D2D2D2D2D2D2DE2E2E2E2E2E2E2E2E2E2E2E2E2E2E2E2E2E2E2E2E2E2E2E2E2E2E2E2E2E2E2E2E2E2E2E2E2E2E2E2E2E2E2E2E2E2E2E2E2E2E2E2E2E2E2E2E2E2E2BEE2E2E2E2E2E2E2E2E2E2E2E2E2E2E2E2E2E2E2E2E2E2E2E2E2E2
310
E2E2E2E2E2E2E2E2E2E2E2E2E2E2E2E2E2E2E2E2E2E2E2E2E2E2E2E2E2E2BEE2E2E2E2E2BEBEBEBEBEBEBEBEBEBEE2E2BEE2E2E2E2E2E2E2E2E2E2E2E2E2E2E2E2E2E2E2E2E2E2E2E2E2E2E2E2E2E2E2E2E2E2E2E2E2E2E2E2E2E2E2E2E2E2E2E2E2E2E2E2E2E2E2E2E2E2E2E2E22D2D2D2D2D2D2D2D2D2D2D2D2DDC2D2D2D
310
2D2D2D2D2D2DE2E2E2E2E2E2E2E2E2E2E2E2E2E2E2E2E2E2E2E2E2E2E2E2E2E2E2E2E2E2E2E2E2E22D2D2D2D2D2D2D2D2DE2E2E2E2E2E2E2E2E2E2E2E2E2E22D2D2D2D2D2D2D2D2DE2E2E2E2E2E2E2E2E2E2E2E2E2E2E2E2E2E2E2E2E2E2E2E2E2E2E2E2E2E2BEE2E2E2E2E2E2E2E2E2E2E2E2E2E2E2E2E2E2E2E2E2E2E2E2
310
E2E2E2E2E2E2E2E2E2E2E2E2E2E2E2E2E2E2E2E2E2E2E2E2E2E2E2E2E2E2E2E2BEE2E2E2E2E2BEBEBEBEBEBEBEBEBEBEE2E2BEE2E2E2E2E2E2E2E2E2E2E2E2E2E2E2E2E2E2E2E2E2E2E2E2E2E2E2E2E2E2E2E2E2E2E2E2E2E2E2E2E2E2E2E2E2E2E2E2E2E2E2E2E2E2E2E2E2E2E2E2E2E2E2E2E2E2E2E2E2E2E2DCDCDCE2E2
310
E2E2E2E2E22D2D2DE2E2E2E2E2E2E2E2E2E2E2E2E2E2E2E2E2E2E2E2E2E2E2E2E2E2E2E2E2E2E2E2E2E22D2D2DE2E2E2E2E2E22D2D2D2D2D2D2D2D2D2D2D2D2D2DE2E2E2E2E2E2E2E2E2E2E2E2E2E2E2E2E2E2E2E2E2E2E2E2E2E2E2E2E2E2E2E2E2E2E2E2E2E2E2BEE2E2E2E2E2E2E2E2E2E2E2E2E2E2E2E2E2E2E2E2E2E2
310
E2E2E2E2E2E2E2E2E2E2E2E2E2E2E2E2E2E2E2E2E2E2E2E2E2E2E2E2E2E2E2E2E2E2BEE2E2E2E2E2BEBEBEBEBEBEBEBEBEBEE2E2BEE2E2E2E2E2E2E2E2E2E2E2E2E2E2E2E2E2E2E2E2E2E2E2E2E2E2E2E2E2E2E2E2E2E2E2E2E2E2E2E2E2E2E2E2E2E2E2E2E2E2E2E2E2E2E2E2E2E2E2E2E2E2E2E2E2E2E2E2E2DCDCE2E2E2
310
E2E2E2E2E2E2E22D2D2D2D2D2D2D2D2D2D2D2D2D2D2D2D2D2D2D2D2D2D2D2D2D2D2D2D2D2D2D2D2D2D2D2D2D2D2D2DE2E2E2E2E2E2E2E2E2E2E2E2E2E2E2E2E2E2E2E2E2E2E2E2E2E2E2E2E2E2E2E2E2E2E2E2E2E2E2E2E2E2E2E2E2E2E2E2E2E2E2E2E2E2E2E2E2E2E2BEE2E2E2E2E2E2E2E2E2E2E2E2E2E2E2E2E2E2E2E2
310
E2E2E2E2E2E2E2E2E2E2E2E2E2E2E2E2E2E2E2E2E2E2E2E2E2E2E2E2E2E2E2E2E2E2E2E2BEE2E2E2E2E2BEBEBEBEBEBEBEBEBEBEE2E2BEE2E2E2E2E2E2E2E2E2E2E2E2E2E2E2E2E2E2E2E2E2E2E2E2E2E2E2E2E2E2E2E2E2E2E2E2E2E2E2E2E2E2E2E2E2E2E2E2E2E2E2E2E2E2E2E2E2E2E2E2E2E2E2E2E2E2E2DCDCE2E2E2
310
E2E2E2E2E2E2E2E2E2E2E2E2E2E2E2E2E2E2E2E2E2E2E2E2E2E2E2E2E2E2E2E2E2E2E2E2E2E2E2E2E2E2E2E2E2E2E2E2E2E2E2E2E2E2E2E2E2E2E2E2E2E2E2E2E2E2E2E2E2E2E2E2E2E2E2E2E2E2E2E2E2E2E2E2E2E2E2E2E2E2E2E2E2E2E2E2E2E2E2E2E2E2E2E2E2E2E2E2BEE2E2E2E2E2E2E2E2E2E2E2E2E2E2E2E2E2E2
310
E2E2E2E2E2E2E2E2E2E2E2E2E2E2E2E2E2E2E2E2E2E2E2E2E2E2E2E2E2E2E2E2E2E2E2E2E2E2BEE2E2E2E2E2BEBEBEBEBEBEBEBEBEBEE2E2BEE2E2E2E2E2E2E2E2E2E2E2E2E2E2E2E2E2E2E2E2E2E2E2E2E2E2E2E2E2E2E2E2E2E2E2E2E2E2E2E2E2E2E2E2E2E2E2E2E2E2E2E2E2E2E2E2E2E2E2E2E2E2E2E2DCDCDCE2E2E2
310
E2E2E2E2E2E2E2E2E2E2E2E2E2E2E2E2E2E2E2E2E2E2E2E2E2E2E2E2E2E2E2E2E2E2E2E2E2E2E2E2E2E2E2E2E2E2E2E2E2E2E2E2E2E2E2E2E2E2E2E2E2E2E2E2E2E2E2E2E2E2E2E2E2E2E2E2E2E2E2E2E2E2E2E2E2E2E2E2E2E2E2E2E2E2E2E2E2E2E2E2E2E2E2E2E2E2E2E2E2E2BEE2E2E2E2E2E2E2E2E2E2E2E2E2E2E2E2
310
E2E2E2E2E2E2E2E2E2E2E2E2E2E2E2E2E2E2E2E2E2E2E2E2E2E2E2E2E2E2E2E2E2E2E2E2E2E2E2E2BEE2E2E2E2E2BEBEBEBEBEBEBEBEBEBEE2E2BEE2E2E2E2E2E2E2E2E2E2E2E2E2E2E2E2E2E2E2E2E2E2E2E2E2E2E2E2E2E2E2E2E2E2E2E2E2E2E2E2E2E2E2E2E2E2E2E2E2E2E2E2E2E2E2E2E2E2E2E2E2E2DCDCE2E2E2E2
310
E2E2E2E2E2E2E2E2E2E2E2E2E2E2E2E2E2E2E2E2E2E2E2E2E2E2E2E2E2E2E2E2E2E2E2E2E2E2E2E2E2E2E2E2E2E2E2E2E2E2E2E2E2E2E2E2E2E2E2E2E2E2E2E2E2E2E2E2E2E2E2E2E2E2E2E2E2E2E2E2E2E2E2E2E2E2E2E2E2E2E2E2E2E2E2E2E2E2E2E2E2E2E2E2E2E2E2E2E2E2E2E2BEE2E2E2E2E2E2E2E2E2E2E2E2E2E2
310
E2E2E2E2E2E2E2E2E2E2E2E2E2E2E2E2E2E2E2E2E2E2E2E2E2E2E2E2E2E2E2E2E2E2E2E2E2E2E2E2E2E2BEE2E2E2E2E2BEBEBEBEBEBEBEBEBEBEE2E2BEE2E2E2E2E2E2E2E2E2E2E2E2E2E2E2E2E2E2E2E2E2E2E2E2E2E2E2E2E2E2E2E2E2E2E2E2E2E2E2E2E2E2E2E2E2E2E2E2E2E2E2E2E2E2E2E2E2E2E2E2DCDCE2E2E2E2
310
E2E2E2E2E2E2E2E2E2E2E2E2E2E2E2E2E2E2E2E2E2E2E2E2E2E2E2E2E2E2E2E2E2E2E2E2E2E2E2E2E2E2E2E2E2E2E2E2E2E2E2E2E2E2E2E2E2E2E2E2E2E2E2E2E2E2E2E2E2E2E2E2E2E2E2E2E2E2E2E2E2E2E2E2E2E2E2E2E2E2E2E2E2E2E2E2E2E2E2E2E2E2E2E2E2E2E2E2E2E2E2E2E2E2BEE2E2E2E2E2E2E2E2E2E2E2E2
310
E2E2E2E2E2E2E2E2E2E2E2E2E2E2E2E2E2E2E2E2E2E2E2E2E2E2E2E2E2E2E2E2E2E2E2E2E2E2E2E2E2E2E2E2BEE2E2E2E2E2BEBEBEBEBEBEBEBEBEBEE2E2BEE2E2E2E2E2E2E2E2E2E2E2E2E2E2E2E2E2E2E2E2E2E2E2E2E2E2E2E2E2E2E2DCE2DCDCDCDCDCDCDCE2DCDCDCDCDCDCDCDCDCDCDCDCDCDCDCDCDCDCDCE2E2E2E2
310
E2E2E2E2E2E2E2E2E2E2E2E2E2E2E2E2E2E2E2E2E2E2E2E2E2E2E2E2E2E2E2E2E2E2E2E2E2E2E2E2E2E2E2E2E2E2E2E2E2E2E2E2E2E2E2E2E2E2E2E2E2E2E2E2E2E2E2E2E2E2E2E2E2E2E2E2E2E2E2E2E2E2E2E2E2E2E2E2E2E2E2E2E2E2E2E2E2E2E2E2E2E2E2E2E2E2E2E2E2E2E2E2E2E2E2E2BEE2E2E2E2E2E2E2E2E2E2
310
E2E2E2E2E2E2E2E2E2E2E2E2E2E2E2E2E2E2E2E2E2E2E2E2E2E2E2E2E2E2E2E2E2E2E2E2E2E2E2E2E2E2E2E2E2E2BEE2E2E2E2E2BEBEBEBEBEBEBEBEBEBEE2E2BEE2E2E2E2E2E2E2E2E2E2E2E2E2E2E2E2E2E2E2E2E2E2E2E2E2E2E2E2E2E2E2DCDCDCDCDCDCDCDCDCE2DCDCDCDCE2DCDCDCDCDCE2E2E2E2E2E2E2E2E2E2E2
310
E2E2E2E2E2E2E2E2E2E2E2E2E2E2E2E2E2E2E2E2E2E2E2E2E2E2E2E2E2E2E2E2E2E2E2E2E2E2E2E2E2E2E2E2E2E2E2E2E2E2E2E2E2E2E2E2E2E2E2E2E2E2E2E2E2E2E2E2E2E2E2E2E2E2E2E2E2E2E2E2E2E2E2E2E2E2E2E2E2E2E2E2E2E2E2E2E2E2E2E2E2E2E2E2E2E2E2E2E2E2E2E2E2E2E2E2E2E2BEE2E2E2E2E2E2E2E2
310
E2E2E2E2E2E2E2E2E2E2E2E2E2E2E2E2E2E2E2E2E2E2E2E2E2E2E2E2E2E2E2E2E2E2E2E2E2E2E2E2E2E2E2E2E2E2E2E2BEE2E2E2E2E2BEBEBEBEBEBEBEBEBEBEE2E2BEE2E2E2E2E2E2E2E2E2E2E2E2E2E2E2E2E2E2E2E2E2E2E2E2E2E2E2E2E2E2E2E2E2E2E2E2E2E2E2E2E2E2E2E2E2E2E2E2E2E2E2E2E2E2E2E2E2E2E2E2
310
E2E2E2E2E2E2E2E2E2E2E2E2E2E2E2E2E2E2E2E2E2E2E2E2E2E2E2E2E2E2E2E2E2E2E2E2E2E2E2E2E2E2E2E2E2E2E2E2E2E2E2E2E2E2E2E2E2E2E2E2E2E2E2E2E2E2E2E2E2E2E2E2E2E2E2E2E2E2E2E2E2E2E2E2E2E2E2E2E2E2E2E2E2E2E2E2E2E2E2E2E2E2E2E2E2E2E2E2E2E2E2E2E2E2E2E2E2E2E2E2BEE2E2E2E2E2E2
310
E2E2E2E2E2E2E2E2E2E2E2E2E2E2E2E2E2E2E2E2E2E2E2E2E2E2E2E2E2E2E2E2E2E2E2E2E2E2E2E2E2E2E2E2E2E2E2E2E2E2BEE2E2E2E2E2BEBEBEBEBEBEBEBEBEBEE2E2BEE2E2E2E2E2E2E2E2E2E2E2E2E2E2E2E2E2E2E2E2E2E2E2E2E2E2E2E2E2E2E2E2E2E2E2E2E2E2E2E2E2E2E2E2E2E2E2E2E2E2E2E2E2E2E2E2E2E2
310
E2E2E2E2E2E2E2E2E2E2E2E2E2E2E2E2E2E2E2E2E2E2E2E2E2E2E2E2E2E2E2E2E2E2E2E2E2E2E2E2E2E2E2E2E2E2E2E2E2E2E2E2E2E2E2E2E2E2E2E2E2E2E2E2E2E2E2E2E2E2E2E2E2E2E2E2E2E2E2E2E2E2E2E2E2E2E2E2E2E2E2E2E2E2E2E2E2E2E2E2E2E2E2E2E2E2E2E2E2E2E2E2E2E2E2E2E2E2E2E2E2E2BEE2E2E2E2
310
E2E2E2E2E2E2E2E2E2E2E2E2E2E2E2E2E2E2E2E2E2E2E2E2E2E2E2E2E2E2E2E2E2E2E2E2E2E2E2E2E2E2E2E2E2E2E2E2E2E2E2E2BEE2E2E2E2E2BEBEBEBEBEBEBEBEBEBEE2E2BEE2E2E2E2E2E2E2E2E2E2E2E2E2E2E2E2E2E2E2E2E2E2E2E2E2E2E2E2E2E2E2E2E2E2E2E2E2E2E2E2E2E2E2E2E2E2E2E2E2E2E2E2E2E2E2E2
310
E2E2E2E2E2E2E2E2E2E2E2E2E2E2E2E2E2E2E2E2E2E2E2E2E2E2E2E2E2E2E2E2E2E2E2E2E2E2E2E2E2E2E2E2E2E2E2E2E2E2E2E2E2E2E2E2E2E2E2E2E2E2E2E2E2E2E2E2E2E2E2E2E2E2E2E2E2E2E2E2E2E2E2E2E2E2E2E2E2E2E2E2E2E2E2E2E2E2E2E2E2E2E2E2E2E2E2E2E2E2E2E2E2E2E2E2E2E2E2E2E2E2E2E2BEE2E2
310
E2E2E2E2E2E2E2E2E2E2E2E2E2E2E2E2E2E2E2E2E2E2E2E2E2E2E2E2E2E2E2E2E2E2E2E2E2E2E2E2E2E2E2E2E2E2E2E2E2E2E2E2E2E2BEE2E2E2E2E2BEBEBEBEBEBEBEBEBEBEE2E2BEE2E2E2E2E2E2E2E2E2E2E2E2E2E2E2E2E2E2E2E2E2E2E2E2E2E2E2E2E2E2E2E2E2E2E2E2E2E2E2E2E2E2E2E2E2E2E2E2E2E2E2E2E2E2
310
E2E2E2E2E2E2E2E2E2E2E2E2E2E2E2E2E2E2E2E2E2E2E2E2E2E2E2E2E2E2E2E2E2E2E2E2E2E2E2E2E2E2E2E2E2E2E2E2E2E2E2E2E2E2E2E2E2E2E2E2E2E2E2E2E2E2E2E2E2E2E2E2E2E2E2E2E2E2E2E2E2E2E2E2E2E2E2E2E2E2E2E2E2E2E2E2E2E2E2E2E2E2E2E2E2E2E2E2E2E2E2E2E2E2E2E2E2E2E2E2E2E2E2E2E2E2BE
310
E2E2E2E2E2E2E2E2E2E2E2E2E2E2E2E2E2E2E2E2E2E2E2E2E2E2E2E2E2E2E2E2E2E2E2E2E2E2E2E2E2E2E2E2E2E2E2E2E2E2E2E2E2E2E2E2BEE2E2E2E2E2BEBEBEBEBEBEBEBEBEBEE2E2BEE2E2E2E2E2E2E2E2E2E2E2E2E2E2E2E2E2E2E2E2E2E2E2E2E2E2E2E2E2E2E2E2E2E2E2E2E2E2E2E2E2E2E2E2E2E2E2E2E2E2E2E2
310
E2E2E2E2E2E2E2E2E2E2E2E2E2E2E2E2E2E2E2E2E2E2E2E2E2E2E2E2E2E2E2E2E2E2E2E2E2E2E2E2E2E2E2E2E2E2E2E2E2E2E2E2E2E2E2E2E2E2E2E2E2E2E2E2E2E2E2E2E2E2E2E2E2E2E2E2E2E2E2E2E2E2E2E2E2E2E2E2E2E2E2E2E2E2E2E2E2E2E2E2E2E2E2E2E2E2E2E2E2E2E2E2E2E2E2E2E2E2E2E2E2E2E2E2E2E2E2
310
E2BEE2E2E2E2E2E2E2E2E2E2E2E2E2E2E2E2E2E2E2E2E2E2E2E2E2E2E2E2E2E2E2E2E2E2E2E2E2E2E2E2E2E2E2E2E2E2E2E2E2E2E2E2E2E2E2E2BEE2E2E2E2E2BEBEBEBEBEBEBEBEBEBEE2E2BEE2E2E2E2E2E2E2E2E2E2E2E2E2E2E2E2E2E2E2E2E2E2E2E2E2E2E2E2E2E2E2E2E2E2E2E2E2E2E2E2E2E2E2E2E2E2E2E2E2E2
310
E2E2E2E2E2E2E2E2E2E2E2E2E2E2E2E2E2E2E2E2E2E2E2E2E2E2E2E2E2E2E2E2E2E2E2E2E2E2E2E2E2E2E2E2E2E2E2E2E2E2E2E2E2E2E2E2E2E2E2E2E2E2E2E2E2E2E2E2E2E2E2E2E2E2E2E2E2E2E2E2E2E2E2E2E2E2E2E2E2E2E2E2E2E2E2E2E2E2E2E2E2E2E2E2E2E2E2E2E2E2E2E2E2E2E2E2E2E2E2E2E2E2E2E2E2E2E2
310
E2E2E2BEE2E2E2E2E2E2E2E2E2E2E2E2E2E2E2E2E2E2E2E2E2E2E2E2E2E2E2E2E2E2E2E2E2E2E2E2E2E2E2E2E2E2E2E2E2E2E2E2E2E2E2E2E2E2E2E2BEE2E2E2E2E2BEBEBEBEBEBEBEBEBEBEE2E2BEE2E2E2E2E2E2E2E2E2E2E2E2E2E2E2E2E2E2E2E2E2E2E2E2E2E2E2E2E2E2E2E2E2E2E2E2E2E2E2E2E2E2E2E2E2E2E2E2
310
E2E2E2E2E2E2E2E2E2E2E2E2E2E2E2E2E2E2E2E2E2E2E2E2E2E2E2E2E2E2E2E2E2E2E2E2E2E2E2E2E2E2E2E2E2E2E2E2E2E2E2E2E2E2E2E2E2E2E2E2E2E2E2E2E2E2E2E2E2E2E2E2E2E2E2E2E2E2E2E2E2E2E2E2E2E2E2E2E2E2E2E2E2E2E2E2E2E2E2E2E2E2E2E2E2E2E2E2E2E2E2E2E2E2E2E2E2E2E2E2E2E2E2E2E2E2E2
310
E2E2E2E2E2BEE2E2E2E2E2E2E2E2E2E2E2E2E2E2E2E2E2E2E2E2E2E2E2E2E2E2E2E2E2E2E2E2E2E2E2E2E2E2E2E2E2E2E2E2E2E2E2E2E2E2E2E2E2E2E2E2BEE2E2E2E2E2BEBEBEBEBEBEBEBEBEBEE2E2BEE2E2E2E2E2E2E2E2E2E2E2E2E2E2E2E2E2E2E2E2E2E2E2E2E2E2E2E2E2E2E2E2E2E2E2E2E2E2E2E2E2E2E2E2E2E2
310
E2E2E2E2E2E2E2E2E2E2E2E2E2E2E2E2E2E2E2E2E2E2E2E2E2E2E2E2E2E2E2E2E2E2E2E2E2E2E2E2E2E2E2E2E2E2E2E2E2E2E2E2E2E2E2E2E2E2E2E2E2E2E2E2E2E2E2E2E2E2E2E2E2E2E2E2E2E2E2E2E2E2E2E2E2E2E2E2E2E2E2E2E2E2E2E2E2E2E2E2E2E2E2E2E2E2E2E2E2E2E2E2E2E2E2E2E2E2E2E2E2E2E2E2E2E2E2
310
E2E2E2E2E2E2E2BEE2E2E2E2E2E2E2E2E2E2E2E2E2E2E2E2E2E2E2E2E2E2E2E2E2E2E2E2E2E2E2E2E2E2E2E2E2E2E2E2E2E2E2E2E2E2E2E2E2E2E2E2E2E2E2E2BEE2E2E2E2E2BEBEBEBEBEBEBEBEBEBEE2E2BEE2E2E2E2E2E2E2E2E2E2E2E2E2E2E2E2E2E2E2E2E2E2E2E2E2E2E2E2E2E2E2E2E2E2E2E2E2E2E2E2E2E2E2E2
310
E2E2E2E2E2E2E2E2E2E2E2E2E2E2E2E2E2E2E2E2E2E2E2E2E2E2E2E2E2E2E2E2E2E2E2E2E2E2E2E2E2E2E2E2E2E2E2E2E2E2E2E2E2E2E2E2E2E2E2E2E2E2E2E2E2E2E2E2E2E2E2E2E2E2E2E2E2E2E2E2E2E2E2E2E2E2E2E2E2E2E2E2E2E2E2E2E2E2E2E2E2E2E2E2E2E2E2E2E2E2E2E2E2E2E2E2E2E2E2E2E2E2E2E2E2E2E2
310
E2E2E2E2E2E2E2E2E2BEE2E2E2E2E2E2E2E2E2E2E2E2E2E2E2E2E2E2E2E2E2E2E2E2E2E2E2E2E2E2E2E2E2E2E2E2E2E2E2E2E2E2E2E2E2E2E2E2E2E2E2E2E2E2E2E2BEE2E2E2E2E2BEBEBEBEBEBEBEBEBEBEE2E2BEE2E2E2E2E2E2E2E2E2E2E2E2E2E2E2E2E2E2E2E2E2E2E2E2E2E2E2E2E2E2E2E2E2E2E2E2E2E2E2E2E2E2
310
E2E2E2E2E2E2E2E2E2E2E2E2E2E2E2E2E2E2E2E2E2E2E2E2E2E2E2E2E2E2E2E2E2E2E2E2E2E2E2E2E2E2E2E2E2E2E2E2E2E2E2E2E2E2E2E2E2E2E2E2E2E2E2E2E2E2E2E2E2E2E2E2E2E2E2E2E2E2E2E2E2E2E2E2E2E2E2E2E2E2E2E2E2E2E2E2E2E2E2E2E2E2E2E2E2E2E2E2E2E2E2E2E2E2E2E2E2E2E2E2E2E2E2E2E2E2E2
310
E2E2E2E2E2E2E2E2E2E2E2BEE2E2E2E2E2E2E2E2E2E2E2E2E2E2E2E2E2E2E2E2E2E2E2E2E2E2E2E2E2E2E2E2E2E2E2E2E2E2E2E2E2E2E2E2E2E2E2E2E2E2E2E2E2E2E2E2BEE2E2E2E2E2BEBEBEBEBEBEBEBEBEBEE2E2BEE2E2E2E2E2E2E2E2E2E2E2E2E2E2E2E2E2E2E2E2E2E2E2E2E2E2E2E2E2E2E2E2E2E2E2E2E2E2E2E2
310
E2E2E2E2E2E2E2E2E2E2E2E2E2E2E2E2E2E2E2E2E2E2E2E2E2E2E2E2E2E2E2E2E2E2E2E2E2E2E2E2E2E2E2E2E2E2E2E2E2E2E2E2E2E2E2E2E2E2E2E2E2E2E2E2E2E2E2E2E2E2E2E2E2E2E2E2E2E2E2E2E2E2E2E2E2E2E2E2E2E2E2E2E2E2E2E2E2E2E2E2E2E2E2E2E2E2E2E2E2E2E2E2E2E2E2E2E2E2E2E2E2E2E2E2E2E2E2
310
E2E2E2E2E2E2E2E2E2E2E2E2E2BEE2E2E2E2E2E2E2E2E2E2E2E2E2E2E2E2E2E2E2E2E2E2E2E2E2E2E2E2E2E2E2E2E2E2E2E2E2E2E2E2E2E2E2E2E2E2E2E2E2E2E2E2E2E2E2E2BEE2E2E2E2E2BEBEBEBEBEBEBEBEBEBEE2E2BEE2E2E2E2E2E2E2E2E2E2E2E2E2E2E2E2E2E2E2E2E2E2E2E2E2E2E2E2E2E2E2E2E2E2E2E2E2E2
310
E2E2E2E2E2E2E2E2E2E2E2E2E2E2E2E2E2E2E2E2E2E2E2E2E2E2E2E2E2E2E2E2E2E2E2E2E2E2E2E2E2E2E2E2E2E2E2E2E2E2E2E2E2E2E2E2E2E2E2E2E2E2E2E2E2E2E2E2E2E2E2E2E2E2E2E2E2E2E2E2E2E2E2E2E2E2E2E2E2E2E2E2E2E2E2E2E2E2E2E2E2E2E2E2E2E2E2E2E2E2E2E2E2E2E2E2E2E2E2E2E2E2E2E2E2E2E2
310
E2E2E2E2E2E2E2E2E2E2E2E2E2E2E2BEE2E2E2E2E2E2E2E2E2E2E2E2E2E2E2E2E2E2E2E2E2E2E2E2E2E2E2E2E2E2E2E2E2E2E2E2E2E2E2E2E2E2E2E2E2E2E2E2E2E2E2E2E2E2E2E2BEE2E2E2E2E2BEBEBEBEBEBEBEBEBEBEE2E2BEE2E2E2E2E2E2E2E2E2E2E2E2E2E2E2E2E2E2E2E2E2E2E2E2E2E2E2E2E2E2E2E2E2E2E2E2
310
E2E2E2E2E2E2E2E2E2E2E2E2E2E2E2E2E2E2E2E2E2E2E2E2E2E2E2E2E2E2E2E2E2E2E2E2E2E2E2E2E2E2E2E2E2E2E2E2E2E2E2E2E2E2E2E2E2E2E2E2E2E2E2E2E2E2E2E2E2E2E2E2E2E2E2E2E2E2E2E2E2E2E2E2E2E2E2E2E2E2E2E2E2E2E2E2E2E2E2E2E2E2E2E2E2E2E2E2E2E2E2E2E2E2E2E2E2E2E2E2E2E2E2E2E2E2E2
310
E2E2E2E2E2E2E2E2E2E2E2E2E2E2E2E2E2BEE2E2E2E2E2E2E2E2E2E2E2E2E2E2E2E2E2E2E2E2E2E2E2E2E2E2E2E2E2E2E2E2E2E2E2E2E2E2E2E2E2E2E2E2E2E2E2E2E2E2E2E2E2E2E2E2BEE2E2E2E2E2BEBEBEBEBEBEBEBEBEBEE2E2BEE2E2E2E2E2E2E2E2E2E2E2E2E2E2E2E2E2E2E2E2E2E2E2E2E2E2E2E2E2E2E2E2E2E2
310
E2E2E2E2E2E2E2E2E2E2E2E2E2E2E2E2E2E2E2E2E2E2E2E2E2E2E2E2E2E2E2E2E2E2E2E2E2E2E2E2E2E2E2E2E2E2E2E2E2E2E2E2E2E2E2E2E2E2E2E2E2E2E2E2E2E2E2E2E2E2E2E2E2E2E2E2E2E2E2E2E2E2E2E2E2E2E2E2E2E2E2E2E2E2E2E2E2E2E2E2E2E2E2E2E2E2E2E2E2E2E2E2E2E2E2E2E2E2E2E2E2E2E2E2E2E2E2
310
E2E2E2E2E2E2E2E2E2E2E2E2E2E2E2E2E2E2E2BEE2E2E2E2E2E2E2E2E2E2E2E2E2E2E2E2E2E2E2E2E2E2E2E2E2E2E2E2E2E2E2E2E2E2E2E2E2E2E2E2E2E2E2E2E2E2E2E2E2E2E2E2E2E2E2E2BEE2E2E2E2E2BEBEBEBEBEBEBEBEBEBEE2E2BEE2E2E2E2E2E2E2E2E2E2E2E2E2E2E2E2E2E2E2E2E2E2E2E2E2E2E2E2E2E2E2E2
310
E2E2E2E2E2E2E2E2E2E2E2E2E2E2E2E2E2E2E2E2E2E2E2E2E2E2E2E2E2E2E2E2E2E2E2E2E2E2E2E2E2E2E2E2E2E2E2E2E2E2E2E2E2E2E2E2E2E2E2E2E2E2E2E2E2E2E2E2E2E2E2E2E2E2E2E2E2E2E2E2E2E2E2E2E2E2E2E2E2E2E2E2E2E2E2E2E2E2E2E2E2E2E2E2E2E2E2E2E2E2E2E2E2E2E2E2E2E2E2E2E2E2E2E2E2E2E2
310
E2E2E2E2E2E2E2E2E2E2E2E2E2E2E2E2E2E2E2E2E2BEE2E2E2E2E2E2E2E2E2E2E2E2E2E2E2E2E2E2E2E2E2E2E2E2E2E2E2E2E2E2E2E2E2E2E2E2E2E2E2E2E2E2E2E2E2E2E2E2E2E2E2E2E2E2E2E2BEE2E2E2E2E2BEBEBEBEBEBEBEBEBEBEE2E2BEE2E2E2E2E2E2E2E2E2E2E2E2E2E2E2E2E2E2E2E2E2E2E2E2E2E2E2E2E2E2
310
E2E2E2E2E2E2E2E2E2E2E2E2E2E2E2E2E2E2E2E2E2E2E2E2E2E2E2E2E2E2E2E2E2E2E2E2E2E2E2E2E2E2E2E2E2E2E2E2E2E2E2E2E2E2E2E2E2E2E2E2E2E2E2E2E2E2E2E2E2E2E2E2E2E2E2E2E2E2E2E2E2E2E2E2E2E2E2E2E2E2E2E2E2E2E2E2E2E2E2E2E2E2E2E2E2E2E2E2E2E2E2E2E2E2E2E2E2E2E2E2E2E2E2E2E2E2E2
310
E2E2E2E2E2E2E2E2E2E2E2E2E2E2E2E2E2E2E2E2E2E2E2BEE2E2E2E2E2E2E2E2E2E2E2E2E2E2E2E2E2E2E2E2E2E2E2E2E2E2E2E2E2E2E2E2E2E2E2E2E2E2E2E2E2E2E2E2E2E2E2E2E2E2E2E2E2E2E2E2BEE2E2E2E2E2BEBEBEBEBEBEBEBEBEBEE2E2BEE2E2E2E2E2E2E2E2E2E2E2E2E2E2E2E2E2E2E2E2E2E2E2E2E2E2E2E2
310
E2E2E2E2E2E2E2E2E2E2E2E2E2E2E2E2E2E2E2E2E2E2E2E2E2E2E2E2E2E2E2E2E2E2E2E2E2E2E2E2E2E2E2E2E2E2E2E2E2E2E2E2E2E2E2E2E2E2E2E2E2E2E2E2E2E2E2E2E2E2E2E2E2E2E2E2E2E2E2E2E2E2E2E2E2E2E2E2E2E2E2E2E2E2E2E2E2E2E2E2E2E2E2E2E2E2E2E2E2E2E2E2E2E2E2E2E2E2E2E2E2E2E2E2E2E2E2
310
E2E2E2E2E2E2E2E2E2E2E2E2E2E2E2E2E2E2E2E2E2E2E2E2E2BEE2E2E2E2E2E2E2E2E2E2E2E2E2E2E2E2E2E2E2E2E2E2E2E2E2E2E2E2E2E2E2E2E2E2E2E2E2E2E2E2E2E2E2E2E2E2E2E2E2E2E2E2E2E2E2E2BEE2E2E2E2E2BEBEBEBEBEBEBEBEBEBEE2E2BEE2E2E2E2E2E2E2E2E2E2E2E2E2E2E2E2E2E2E2E2E2E2E2E2E2E2
310
E2E2E2E2E2E2E2E2E2E2E2E2E2E2E2E2E2E2E2E2E2E2E2E2E2E2E2E2E2E2E2E2E2E2E2E2E2E2E2E2E2E2E2E2E2E2E2E2E2E2E2E2E2E2E2E2E2E2E2E2E2E2E2E2E2E2E2E2E2E2E2E2E2E2E2E2E2E2E2E2E2E2E2E2E2E2E2E2E2E2E2E2E2E2E2E2E2E2E2E2E2E2E2E2E2E2E2E2E2E2E2E2E2E2E2E2E2E2E2E2E2E2E2E2E2E2E2
310
E2E2E2E2E2E2E2E2E2E2E2E2E2E2E2E2E2E2E2E2E2E2E2E2E2E2E2BEE2E2E2E2E2E2E2E2E2E2E2E2E2E2E2E2E2E2E2E2E2E2E2E2E2E2E2E2E2E2E2E2E2E2E2E2E2E2E2E2E2E2E2E2E2E2E2E2E2E2E2E2E2E2E2E2BEE2E2E2E2E2BEBEBEBEBEBEBEBEBEBEE2E2BEE2E2E2E2E2E2E2E2E2E2E2E2E2E2E2E2E2E2E2E2E2E2E2E2
310
E2E2E2E2E2E2E2E2E2E2E2E2E2E2E2E2E2E2E2E2E2E2E2E2E2E2E2E2E2E2E2E2E2E2E2E2E2E2E2E2E2E2E2E2E2E2E2E2E2E2E2E2E2E2E2E2E2E2E2E2E2E2E2E2E2E2E2E2E2E2E2E2E2E2E2E2E2E2E2E2E2E2E2E2E2E2E2E2E2E2E2E2E2E2E2E2E2E2E2E2E2E2E2E2E2E2E2E2E2E2E2E2E2E2E2E2E2E2E2E2E2E2E2E2E2E2E2
310
E2E2E2E2E2E2E2E2E2E2E2E2E2E2E2E2E2E2E2E2E2E2E2E2E2E2E2E2E2BEE2E2E2E2E2E2E2E2E2E2E2E2E2E2E2E2E2E2E2E2E2E2E2E2E2E2E2E2E2E2E2E2E2E2E2E2E2E2E2E2E2E2E2E2E2E2E2E2E2E2E2E2E2E2E2E2BEE2E2E2E2E2BEBEBEBEBEBEBEBEBEBEE2E2BEE2E2E2E2E2E2E2E2E2E2E2E2E2E2E2E2E2E2E2E2E2E2
310
E2E2E2E2E2E2E2E2E2E2E2E2E2E2E2E2E2E2E2E2E2E2E2E2E2E2E2E2E2E2E2E2E2E2E2E2E2E2E2E2E2E2E2E2E2E2E2E2E2E2E2E2E2E2E2E2E2E2E2E2E2E2E2E2E2E2E2E2E2E2E2E2E2E2E2E2E2E2E2E2E2E2E2E2E2E2E2E2E2E2E2E2E2E2E2E2E2E2E2E2E2E2E2E2E2E2E2E2E2E2E2E2E2E2E2E2E2E2E2E2E2E2E2E2E2E2E2
310
E2E2E2E2E2E2E2E2E2E2E2E2E2E2E2E2E2E2E2E2E2E2E2E2E2E2E2E2E2E2E2BEE2E2E2E2E2E2E2E2E2E2E2E2E2E2E2E2E2E2E2E2E2E2E2E2E2E2E2E2E2E2E2E2E2E2E2E2E2E2E2E2E2E2E2E2E2E2E2E2E2E2E2E2E2E2E2E2BEE2E2E2E2E2BEBEBEBEBEBEBEBEBEBEE2E2BEE2E2E2E2E2E2E2E2E2E2E2E2E2E2E2E2E2E2E2E2
310
E2E2E2E2E2E2E2E2E2E2E2E2E2E2E2E2E2E2E2E2E2E2E2E2E2E2E2E2E2E2E2E2E2E2E2E2E2E2E2E2E2E2E2E2E2E2E2E2E2E2E2E2E2E2E2E2E2E2E2E2E2E2E2E2E2E2E2E2E2E2E2E2E2E2E2E2E2E2E2E2E2E2E2E2E2E2E2E2E2E2E2E2E2E2E2E2E2E2E2E2E2E2E2E2E2E2E2E2E2E2E2E2E2E2E2E2E2E2E2E2E2E2E2E2E2E2E2
310
E2E2E2E2E2E2E2E2E2E2E2E2E2E2E2E2E2E2E2E2E2E2E2E2E2E2E2E2E2E2E2E2E2BEE2E2E2E2E2E2E2E2E2E2E2E2E2E2E2E2E2E2E2E2E2E2E2E2E2E2E2E2E2E2E2E2E2E2E2E2E2E2E2E2E2E2E2E2E2E2E2E2E2E2E2E2E2E2E2E2BEE2E2E2E2E2BEBEBEBEBEBEBEBEBEBEE2E2BEE2E2E2E2E2E2E2E2E2E2E2E2E2E2E2E2E2E2
310
E2E2E2E2E2E2E2E2E2E2E2E2E2E2E2E2E2E2E2E2E2E2E2E2E2E2E2E2E2E2E2E2E2E2E2E2E2E2E2E2E2E2E2E2E2E2E2E2E2E2E2E2E2E2E2E2E2E2E2E2E2E2E2E2E2E2E2E2E2E2E2E2E2E2E2E2E2E2E2E2E2E2E2E2E2E2E2E2E2E2E2E2E2E2E2E2E2E2E2E2E2E2E2E2E2E2E2E2E2E2E2E2E2E2E2E2E2E2E2E2E2E2E2E2E2E2E2
310
E2E2E2E2E2E2E2E2E2E2E2E2E2E2E2E2E2E2E2E2E2E2E2E2E2E2E2E2E2E2E2E2E2E2E2BEE2E2E2E2E2E2E2E2E2E2E2E2E2E2E2E2E2E2E2E2E2E2E2E2E2E2E2E2E2E2E2E2E2E2E2E2E2E2E2E2E2E2E2E2E2E2E2E2E2E2E2E2E2E2E2E2BEE2E2E2E2E2BEBEBEBEBEBEBEBEBEBEE2E2BEE2E2E2E2E2E2E2E2E2E2E2E2E2E2E2E2
310
E2E2E2E2E2E2E2E2E2E2E2E2E2E2E2E2E2E2E2E2E2E2E2E2E2E2E2E2E2E2E2E2E2E2E2E2E2E2E2E2E2E2E2E2E2E2E2E2E2E2E2E2E2E2E2E2E2E2E2E2E2E2E2E2E2E2E2E2E2E2E2E2E2E2E2E2E2E2E2E2E2E2E2E2E2E2E2E2E2E2E2E2E2E2E2E2E2E2E2E2E2E2E2E2E2E2E2E2E2E2E2E2E2E2E2E2E2E2E2E2E2E2E2E2E2E2E2
310
E2E2E2E2E2E2E2E2E2E2E2E2E2E2E2E2E2E2E2E2E2E2E2E2E2E2E2E2E2E2E2E2E2E2E2E2E2BEE2E2E2E2E2E2E2E2E2E2E2E2E2E2E2E2E2E2E2E2E2E2E2E2E2E2E2E2E2E2E2E2E2E2E2E2E2E2E2E2E2E2E2E2E2E2E2E2E2E2E2E2E2E2E2E2BEE2E2E2E2E2BEBEBEBEE2E2BEBEBEBEE2E2BEE2E2E2E2E2E2E2E2E2E2E2E2E2E2
310
E2E2E2E2E2E2E2E2E2E2E2E2E2E2E2E2E2E2E2E2E2E2E2E2E2E2E2E2E2E2E2E2E2E2E2E2E2E2E2E2E2E2E2E2E2E2E2E2E2E2E2E2E2E2E2E2E2E2E2E2E2E2E2E2E2E2E2E2E2E2E2E2E2E2E2E2E2E2E2E2E2E2E2E2E2E2E2E2E2E2E2E2E2E2E2E2E2E2E2E2E2E2E2E2E2E2E2E2E2E2E2E2E2E2E2E2E2E2E2E2E2E2E2E2E2E2E2
310
E2E2E2E2E2E2E2E2E2E2E2E2E2E2E2E2E2E2E2E2E2E2E2E2E2E2E2E2E2E2E2E2E2E2E2E2E2E2E2BEE2E2E2E2E2E2E2E2E2E2E2E2E2E2E2E2E2E2E2E2E2E2E2E2E2E2E2E2E2E2E2E2E2E2E2E2E2E2E2E2E2E2E2E2E2E2E2E2E2E2E2E2E2E2E2E2BEE2E2E2E2E2BEBEBEBEE2E2BEBEE2E2E2E2BEE2E2E2E2E2E2E2E2E2E2E2E2
310
E2E2E2E2E2E2E2E2E2E2E2E2E2E2E2E2E2E2E2E2E2E2E2E2E2E2E2E2E2E2E2E2E2E2E2E2E2E2E2E2E2E2E2E2E2E2E2E2E2E2E2E2E2E2E2E2E2E2E2E2E2E2E2E2E2E2E2E2E2E2E2E2E2E2E2E2E2E2E2E2E2E2E2E2E2E2E2E2E2E2E2E2E2E2E2E2E2E2E2E2E2E2E2E2E2E2E2E2E2E2E2E2E2E2E2E2E2E2E2E2E2E2E2E2E2E2E2
310
E2E2E2E2E2E2E2E2E2E2E2E2E2E2E2E2E2E2E2E2E2E2E2E2E2E2E2E2E2E2E2E2E2E2E2E2E2E2E2E2E2BEE2E2E2E2E2E2E2E2E2E2E2E2E2E2E2E2E2E2E2E2E2E2E2E2E2E2E2E2E2E2E2E2E2E2E2E2E2E2E2E2E2E2E2E2E2E2E2E2E2E2E2E2E2E2E2E2BEE2E2E2E2E2E2E2BEBEE2E2E2E2E2E2E2E2BEE2E2E2E2E2E2E2E2E2E2
310
E2E2E2E2E2E2E2E2E2E2E2E2E2E2E2E2E2E2E2E2E2E2E2E2E2E2E2E2E2E2E2E2E2E2E2E2E2E2E2E2E2E2E2E2E2E2E2E2E2E2E2E2E2E2E2E2E2E2E2E2E2E2E2E2E2E2E2E2E2E2E2E2E2E2E2E2E2E2E2E2E2E2E2E2E2E2E2E2E2E2E2E2E2E2E2E2E2E2E2E2E2E2E2E2E2E2E2E2E2E2E2E2E2E2E2E2E2E2E2E2E2E2E2E2E2E2E2
310
E2E2E2E2E2E2E2E2E2E2E2E2E2E2E2E2E2E2E2E2E2E2E2E2E2E2E2E2E2E2E2E2E2E2E2E2E2E2E2E2E2E2E2BEE2E2E2E2E2E2E2E2E2E2E2E2E2E2E2E2E2E2E2E2E2E2E2E2E2E2E2E2E2E2E2E2E2E2E2E2E2E2E2E2E2E2E2E2E2E2E2E2E2E2E2E2E2E2E2E2BEE2E2E2E2E2E2E2E2E2E2E2E2E2E2E2E2E2BEE2E2E2E2E2E2E2E2
310
E2E2E2E2E2E2E2E2E2E2E2E2E2E2E2E2E2E2E2E2E2E2E2E2E2E2E2E2E2E2E2E2E2E2E2E2E2E2E2E2E2E2E2E2E2E2E2E2E2E2E2E2E2E2E2E2E2E2E2E2E2E2E2E2E2E2E2E2E2E2E2E2E2E2E2E2E2E2E2E2E2E2E2E2E2E2E2E2E2E2E2E2E2E2E2E2E2E2E2E2E2E2E2E2E2E2E2E2E2E2E2E2E2E2E2E2E2E2E2E2E2E2E2E2E2E2E2
310
E2E2E2E2E2E2E2E2E2E2E2E2E2E2E2E2E2E2E2E2E2E2E2E2E2E2E2E2E2E2E2E2E2E2E2E2E2E2E2E2E2E2E2E2E2BEE2E2E2E2E2E2E2E2E2E2E2E2E2E2E2E2E2E2E2E2E2E2E2E2E2E2E2E2E2E2E2E2E2E2E2E2E2E2E2E2E2E2E2E2E2E2E2E2E2E2E2E2E2E2E2E2BEE2E2E2E2E2E2E2E2E2E2E2E2E2E2E2E2E2BEE2E2E2E2E2E2
310
E2E2E2E2E2E2E2E2E2E2E2E2E2E2E2E2E2E2E2E2E2E2E2E2E2E2E2E2E2E2E2E2E2E2E2E2E2E2E2E2E2E2E2E2E2E2E2E2E2E2E2E2E2E2E2E2E2E2E2E2E2E2E2E2E2E2E2E2E2E2E2E2E2E2E2E2E2E2E2E2E2E2E2E2E2E2E2E2E2E2E2E2E2E2E2E2E2E2E2E2E2E2E2E2E2E2E2E2E2E2E2E2E2E2E2E2E2E2E2E2E2E2E2E2E2E2E2
310
E2E2E2E2E2E2E2E2E2E2E2E2E2E2E2E2E2E2E2E2E2E2E2E2E2E2E2E2E2E2E2E2E2E2E2E2E2E2E2E2E2E2E2E2E2E2E2BEE2E2E2E2E2E2E2E2E2E2E2E2E2E2E2E2E2E2E2E2E2E2E2E2E2E2E2E2E2E2E2E2E2E2E2E2E2E2E2E2E2E2E2E2E2E2E2E2E2E2E2E2E2E2E2E2BEE2E2E2E2E2E2E2E2E2E2E2E2E2E2E2E2E2BEE2E2E2E2
310
E2E2E2E2E2E2E2E2E2E2E2E2E2E2E2E2E2E2E2E2E2E2E2E2E2E2E2E2E2E2E2E2E2E2E2E2E2E2E2E2E2E2E2E2E2E2E2E2E2E2E2E2E2E2E2E2E2E2E2E2E2E2E2E2E2E2E2E2E2E2E2E2E2E2E2E2E2E2E2E2E2E2E2E2E2E2E2E2E2E2E2E2E2E2E2E2E2E2E2E2E2E2E2E2E2E2E2E2E2E2E2E2E2E2E2E2E2E2E2E2E2E2E2E2E2E2E2
310
E2E2E2E2E2E2E2E2E2E2E2E2E2E2E2E2E2E2E2E2E2E2E2E2E2E2E2E2E2E2E2E2E2E2E2E2E2E2E2E2E2E2E2E2E2E2E2E2E2BEE2E2E2E2E2E2E2E2E2E2E2E2E2E2E2E2E2E2E2E2E2E2E2E2E2E2E2E2E2E2E2E2E2E2E2E2E2E2E2E2E2E2E2E2E2E2E2E2E2E2E2E2E2E2E2E2BEBEBEBEBEBEBEBEBEBEBEBEBEBEBEBEBEBEBEBEBE
310
BEBEBEBEBEBEBEBEBEBEBEBEBEBEBEBEBEBEBEBEBEBEBEBEBEBEBEBEBEBEBEBEBEBEBEBEBEBEBEBEBEBEBEBEBEBEBEBEBEBEBEBEBEBEBEBEBEBEBEBEBEBEBEBEBEBEBEBEBEBEBEBEBEBEBEBEBEBEBEBEBEBEBEBEBEBEBEBEBEBEBEBEBEBEBEBEBEBEBEBEBEBEBEBEBEBEBEBEBEBEBEBEBEBEBEBEBEBEBEBEBEBEBEBEBEBEBE
310
BEBEBEBEBEBEBEBEBEBEBEBEBEBEBEBEBEBEBEBEBEBEBEBEBEBEBEBEBEBEBEBEBEBEBEBEBEBEBEBEBEBEBEBEBEBEBEBEBEBEBEBEE2E2E2E2E2E2E2E2E2E2E2E2E2E2E2E2E2E2E2E2E2E2E2E2E2E2E2E2
  0
XRECORD
  5
E050
102
{ACAD_REACTORS
330
E04F
102
}
330
E04F
100
AcDbXrecord
280
     1
102
MATERIAL
148
0.0
149
0.0
149
0.0
 93
        0
 94
       63
282
     0
 72
     1
 77
     1
171
     1
175
     1
179
     1
273
     0
  0
XRECORD
  5
E04E
102
{ACAD_REACTORS
330
E04D
102
}
330
E04D
100
AcDbXrecord
280
     1
102
MATERIAL
148
0.0
149
0.0
149
0.0
 93
        0
 94
       63
282
     0
 72
     1
 77
     1
171
     1
175
     1
179
     1
273
     0
  0
XRECORD
  5
E051
102
{ACAD_REACTORS
330
110
102
}
330
110
100
AcDbXrecord
280
     1
102
MATERIAL
148
0.0
149
0.0
149
0.0
 93
        0
 94
       63
282
     0
 72
     1
 77
     1
171
     1
175
     1
179
     1
273
     0
  0
XRECORD
  5
112
102
{ACAD_REACTORS
330
110
102
}
330
110
100
AcDbXrecord
280
     1
270
     1
271
     1
  0
XRECORD
  5
111
102
{ACAD_REACTORS
330
110
102
}
330
110
100
AcDbXrecord
280
     1
270
     1
271
     1
  0
XRECORD
  5
113
102
{ACAD_REACTORS
330
110
102
}
330
110
100
AcDbXrecord
280
     1
270
     1
271
     1
  0
XRECORD
  5
114
102
{ACAD_REACTORS
330
110
102
}
330
110
100
AcDbXrecord
280
     1
270
     1
271
     1
  0
CELLSTYLEMAP
  5
E04A
102
{ACAD_REACTORS
330
E008
102
}
330
E008
100
AcDbCellStyleMap
 90
        3
300
CELLSTYLE
  1
TABLEFORMAT_BEGIN
 90
        5
170
     1
 91
        0
 92
    32768
 62
   257
 93
        1
300
CONTENTFORMAT
  1
CONTENTFORMAT_BEGIN
 90
        0
 91
        0
 92
      512
 93
        0
300

 40
0.0
140
1.0
 94
        5
 62
     0
340
180
144
0.5
309
CONTENTFORMAT_END
171
     0
 94
        6
 95
        1
302
GRIDFORMAT
  1
GRIDFORMAT_BEGIN
 90
        0
 91
        1
 62
     0
 92
       -2
340
0
 93
        1
 40
0.045
309
GRIDFORMAT_END
 95
        2
302
GRIDFORMAT
  1
GRIDFORMAT_BEGIN
 90
        0
 91
        1
 62
     0
 92
       -2
340
0
 93
        1
 40
0.045
309
GRIDFORMAT_END
 95
        4
302
GRIDFORMAT
  1
GRIDFORMAT_BEGIN
 90
        0
 91
        1
 62
     0
 92
       -2
340
0
 93
        1
 40
0.045
309
GRIDFORMAT_END
 95
        8
302
GRIDFORMAT
  1
GRIDFORMAT_BEGIN
 90
        0
 91
        1
 62
     0
 92
       -2
340
0
 93
        1
 40
0.045
309
GRIDFORMAT_END
 95
       16
302
GRIDFORMAT
  1
GRIDFORMAT_BEGIN
 90
        0
 91
        1
 62
     0
 92
       -2
340
0
 93
        1
 40
0.045
309
GRIDFORMAT_END
 95
       32
302
GRIDFORMAT
  1
GRIDFORMAT_BEGIN
 90
        0
 91
        1
 62
     0
 92
       -2
340
0
 93
        1
 40
0.045
309
GRIDFORMAT_END
309
TABLEFORMAT_END
  1
CELLSTYLE_BEGIN
 90
        1
 91
        1
300
_TITLE
309
CELLSTYLE_END
300
CELLSTYLE
  1
TABLEFORMAT_BEGIN
 90
        5
170
     1
 91
        0
 92
        0
 62
   257
 93
        1
300
CONTENTFORMAT
  1
CONTENTFORMAT_BEGIN
 90
        0
 91
        0
 92
      512
 93
        0
300

 40
0.0
140
1.0
 94
        4
 62
     0
340
180
144
0.4
309
CONTENTFORMAT_END
171
     0
 94
        6
 95
        1
302
GRIDFORMAT
  1
GRIDFORMAT_BEGIN
 90
        0
 91
        1
 62
     0
 92
       -2
340
0
 93
        1
 40
0.045
309
GRIDFORMAT_END
 95
        2
302
GRIDFORMAT
  1
GRIDFORMAT_BEGIN
 90
        0
 91
        1
 62
     0
 92
       -2
340
0
 93
        1
 40
0.045
309
GRIDFORMAT_END
 95
        4
302
GRIDFORMAT
  1
GRIDFORMAT_BEGIN
 90
        0
 91
        1
 62
     0
 92
       -2
340
0
 93
        1
 40
0.045
309
GRIDFORMAT_END
 95
        8
302
GRIDFORMAT
  1
GRIDFORMAT_BEGIN
 90
        0
 91
        1
 62
     0
 92
       -2
340
0
 93
        1
 40
0.045
309
GRIDFORMAT_END
 95
       16
302
GRIDFORMAT
  1
GRIDFORMAT_BEGIN
 90
        0
 91
        1
 62
     0
 92
       -2
340
0
 93
        1
 40
0.045
309
GRIDFORMAT_END
 95
       32
302
GRIDFORMAT
  1
GRIDFORMAT_BEGIN
 90
        0
 91
        1
 62
     0
 92
       -2
340
0
 93
        1
 40
0.045
309
GRIDFORMAT_END
309
TABLEFORMAT_END
  1
CELLSTYLE_BEGIN
 90
        2
 91
        1
300
_HEADER
309
CELLSTYLE_END
300
CELLSTYLE
  1
TABLEFORMAT_BEGIN
 90
        5
170
     1
 91
        0
 92
        0
 62
   257
 93
        1
300
CONTENTFORMAT
  1
CONTENTFORMAT_BEGIN
 90
        0
 91
        0
 92
      512
 93
        0
300

 40
0.0
140
1.0
 94
        4
 62
     0
340
180
144
0.4
309
CONTENTFORMAT_END
171
     0
 94
        6
 95
        1
302
GRIDFORMAT
  1
GRIDFORMAT_BEGIN
 90
        0
 91
        1
 62
     0
 92
       -2
340
0
 93
        1
 40
0.045
309
GRIDFORMAT_END
 95
        2
302
GRIDFORMAT
  1
GRIDFORMAT_BEGIN
 90
        0
 91
        1
 62
     0
 92
       -2
340
0
 93
        1
 40
0.045
309
GRIDFORMAT_END
 95
        4
302
GRIDFORMAT
  1
GRIDFORMAT_BEGIN
 90
        0
 91
        1
 62
     0
 92
       -2
340
0
 93
        1
 40
0.045
309
GRIDFORMAT_END
 95
        8
302
GRIDFORMAT
  1
GRIDFORMAT_BEGIN
 90
        0
 91
        1
 62
     0
 92
       -2
340
0
 93
        1
 40
0.045
309
GRIDFORMAT_END
 95
       16
302
GRIDFORMAT
  1
GRIDFORMAT_BEGIN
 90
        0
 91
        1
 62
     0
 92
       -2
340
0
 93
        1
 40
0.045
309
GRIDFORMAT_END
 95
       32
302
GRIDFORMAT
  1
GRIDFORMAT_BEGIN
 90
        0
 91
        1
 62
     0
 92
       -2
340
0
 93
        1
 40
0.045
309
GRIDFORMAT_END
309
TABLEFORMAT_END
  1
CELLSTYLE_BEGIN
 90
        3
 91
        2
300
_DATA
309
CELLSTYLE_END
  0
XRECORD
  5
E078
102
{ACAD_REACTORS
330
E008
102
}
330
E008
100
AcDbXrecord
280
     1
102
ACAD_ROUNDTRIP_PRE2007_TABLESTYLE
 90
      512
 91
        0
  1

 92
      512
 93
        0
  2

 94
      512
 95
        0
  3

  0
CELLSTYLEMAP
  5
E049
102
{ACAD_REACTORS
330
104
102
}
330
104
100
AcDbCellStyleMap
 90
        3
300
CELLSTYLE
  1
TABLEFORMAT_BEGIN
 90
        5
170
     1
 91
        0
 92
    32768
 62
   257
 93
        1
300
CONTENTFORMAT
  1
CONTENTFORMAT_BEGIN
 90
        0
 91
        0
 92
      512
 93
        0
300

 40
0.0
140
1.0
 94
        5
 62
     0
340
11
144
0.25
309
CONTENTFORMAT_END
171
     1
301
MARGIN
  1
CELLMARGIN_BEGIN
 40
0.06
 40
0.06
 40
0.06
 40
0.06
 40
0.18
 40
0.18
309
CELLMARGIN_END
 94
        6
 95
        1
302
GRIDFORMAT
  1
GRIDFORMAT_BEGIN
 90
        0
 91
        1
 62
     0
 92
       -2
340
0
 93
        0
 40
0.045
309
GRIDFORMAT_END
 95
        2
302
GRIDFORMAT
  1
GRIDFORMAT_BEGIN
 90
        0
 91
        1
 62
     0
 92
       -2
340
0
 93
        0
 40
0.045
309
GRIDFORMAT_END
 95
        4
302
GRIDFORMAT
  1
GRIDFORMAT_BEGIN
 90
        0
 91
        1
 62
     0
 92
       -2
340
0
 93
        0
 40
0.045
309
GRIDFORMAT_END
 95
        8
302
GRIDFORMAT
  1
GRIDFORMAT_BEGIN
 90
        0
 91
        1
 62
     0
 92
       -2
340
0
 93
        0
 40
0.045
309
GRIDFORMAT_END
 95
       16
302
GRIDFORMAT
  1
GRIDFORMAT_BEGIN
 90
        0
 91
        1
 62
     0
 92
       -2
340
0
 93
        0
 40
0.045
309
GRIDFORMAT_END
 95
       32
302
GRIDFORMAT
  1
GRIDFORMAT_BEGIN
 90
        0
 91
        1
 62
     0
 92
       -2
340
0
 93
        0
 40
0.045
309
GRIDFORMAT_END
309
TABLEFORMAT_END
  1
CELLSTYLE_BEGIN
 90
        1
 91
        1
300
_TITLE
309
CELLSTYLE_END
300
CELLSTYLE
  1
TABLEFORMAT_BEGIN
 90
        5
170
     1
 91
        0
 92
        0
 62
   257
 93
        1
300
CONTENTFORMAT
  1
CONTENTFORMAT_BEGIN
 90
        0
 91
        0
 92
      512
 93
        0
300

 40
0.0
140
1.0
 94
        5
 62
     0
340
11
144
0.18
309
CONTENTFORMAT_END
171
     1
301
MARGIN
  1
CELLMARGIN_BEGIN
 40
0.06
 40
0.06
 40
0.06
 40
0.06
 40
0.18
 40
0.18
309
CELLMARGIN_END
 94
        6
 95
        1
302
GRIDFORMAT
  1
GRIDFORMAT_BEGIN
 90
        0
 91
        1
 62
     0
 92
       -2
340
0
 93
        0
 40
0.045
309
GRIDFORMAT_END
 95
        2
302
GRIDFORMAT
  1
GRIDFORMAT_BEGIN
 90
        0
 91
        1
 62
     0
 92
       -2
340
0
 93
        0
 40
0.045
309
GRIDFORMAT_END
 95
        4
302
GRIDFORMAT
  1
GRIDFORMAT_BEGIN
 90
        0
 91
        1
 62
     0
 92
       -2
340
0
 93
        0
 40
0.045
309
GRIDFORMAT_END
 95
        8
302
GRIDFORMAT
  1
GRIDFORMAT_BEGIN
 90
        0
 91
        1
 62
     0
 92
       -2
340
0
 93
        0
 40
0.045
309
GRIDFORMAT_END
 95
       16
302
GRIDFORMAT
  1
GRIDFORMAT_BEGIN
 90
        0
 91
        1
 62
     0
 92
       -2
340
0
 93
        0
 40
0.045
309
GRIDFORMAT_END
 95
       32
302
GRIDFORMAT
  1
GRIDFORMAT_BEGIN
 90
        0
 91
        1
 62
     0
 92
       -2
340
0
 93
        0
 40
0.045
309
GRIDFORMAT_END
309
TABLEFORMAT_END
  1
CELLSTYLE_BEGIN
 90
        2
 91
        1
300
_HEADER
309
CELLSTYLE_END
300
CELLSTYLE
  1
TABLEFORMAT_BEGIN
 90
        5
170
     1
 91
        0
 92
        0
 62
   257
 93
        1
300
CONTENTFORMAT
  1
CONTENTFORMAT_BEGIN
 90
        0
 91
        0
 92
      512
 93
        0
300

 40
0.0
140
1.0
 94
        2
 62
     0
340
11
144
0.18
309
CONTENTFORMAT_END
171
     1
301
MARGIN
  1
CELLMARGIN_BEGIN
 40
0.06
 40
0.06
 40
0.06
 40
0.06
 40
0.18
 40
0.18
309
CELLMARGIN_END
 94
        6
 95
        1
302
GRIDFORMAT
  1
GRIDFORMAT_BEGIN
 90
        0
 91
        1
 62
     0
 92
       -2
340
0
 93
        0
 40
0.045
309
GRIDFORMAT_END
 95
        2
302
GRIDFORMAT
  1
GRIDFORMAT_BEGIN
 90
        0
 91
        1
 62
     0
 92
       -2
340
0
 93
        0
 40
0.045
309
GRIDFORMAT_END
 95
        4
302
GRIDFORMAT
  1
GRIDFORMAT_BEGIN
 90
        0
 91
        1
 62
     0
 92
       -2
340
0
 93
        0
 40
0.045
309
GRIDFORMAT_END
 95
        8
302
GRIDFORMAT
  1
GRIDFORMAT_BEGIN
 90
        0
 91
        1
 62
     0
 92
       -2
340
0
 93
        0
 40
0.045
309
GRIDFORMAT_END
 95
       16
302
GRIDFORMAT
  1
GRIDFORMAT_BEGIN
 90
        0
 91
        1
 62
     0
 92
       -2
340
0
 93
        0
 40
0.045
309
GRIDFORMAT_END
 95
       32
302
GRIDFORMAT
  1
GRIDFORMAT_BEGIN
 90
        0
 91
        1
 62
     0
 92
       -2
340
0
 93
        0
 40
0.045
309
GRIDFORMAT_END
309
TABLEFORMAT_END
  1
CELLSTYLE_BEGIN
 90
        3
 91
        2
300
_DATA
309
CELLSTYLE_END
  0
XRECORD
  5
E04C
102
{ACAD_REACTORS
330
104
102
}
330
104
100
AcDbXrecord
280
     1
102
ACAD_ROUNDTRIP_PRE2007_TABLESTYLE
 90
      512
 91
        0
  1

 92
      512
 93
        0
  2

 94
      512
 95
        0
  3

  0
XRECORD
  5
E05D
102
{ACAD_REACTORS
330
E05C
102
}
330
E05C
100
AcDbXrecord
280
     1
102
RTVSPropertyOp0
 70
     1
102
RTVSPropertyOp1
 70
     1
102
RTVSPropertyOp2
 70
     1
102
RTVSPropertyOp3
 70
     1
102
RTVSPropertyOp4
 70
     1
102
RTVSPropertyOp5
 70
     1
102
RTVSPropertyOp6
 70
     1
102
RTVSPropertyOp7
 70
     1
102
RTVSPropertyOp8
 70
     1
102
RTVSPropertyOp9
 70
     1
102
RTVSPropertyOp10
 70
     1
102
RTVSPropertyOp11
 70
     1
102
RTVSPropertyOp12
 70
     1
102
RTVSPropertyOp13
 70
     1
102
RTVSPropertyOp14
 70
     1
102
RTVSPropertyOp15
 70
     1
102
RTVSPropertyOp16
 70
     1
102
RTVSPropertyOp17
 70
     1
102
RTVSPropertyOp18
 70
     1
102
RTVSPropertyOp19
 70
     1
102
RTVSPropertyOp20
 70
     1
102
RTVSPropertyOp21
 70
     1
102
RTVSPropertyOp22
 70
     1
102
RTVSPropertyOp23
 70
     1
102
RTVSPropertyOp24
 70
     1
102
RTVSPropertyOp25
 70
     1
102
RTVSPropertyOp26
 70
     1
102
RTVSPropertyOp27
 70
     1
  0
XRECORD
  5
E061
102
{ACAD_REACTORS
330
E060
102
}
330
E060
100
AcDbXrecord
280
     1
102
RTVSPropertyOp0
 70
     1
102
RTVSPropertyOp1
 70
     1
102
RTVSPropertyOp2
 70
     1
102
RTVSPropertyOp3
 70
     1
102
RTVSPropertyOp4
 70
     1
102
RTVSPropertyOp5
 70
     1
102
RTVSPropertyOp6
 70
     1
102
RTVSPropertyOp7
 70
     1
102
RTVSPropertyOp8
 70
     1
102
RTVSPropertyOp9
 70
     1
102
RTVSPropertyOp10
 70
     1
102
RTVSPropertyOp11
 70
     1
102
RTVSPropertyOp12
 70
     1
102
RTVSPropertyOp13
 70
     1
102
RTVSPropertyOp14
 70
     1
102
RTVSPropertyOp15
 70
     1
102
RTVSPropertyOp16
 70
     1
102
RTVSPropertyOp17
 70
     1
102
RTVSPropertyOp18
 70
     1
102
RTVSPropertyOp19
 70
     1
102
RTVSPropertyOp20
 70
     1
102
RTVSPropertyOp21
 70
     1
102
RTVSPropertyOp22
 70
     1
102
RTVSPropertyOp23
 70
     1
102
RTVSPropertyOp24
 70
     1
102
RTVSPropertyOp25
 70
     1
102
RTVSPropertyOp26
 70
     1
102
RTVSPropertyOp27
 70
     1
  0
XRECORD
  5
E05F
102
{ACAD_REACTORS
330
E05E
102
}
330
E05E
100
AcDbXrecord
280
     1
102
RTVSPropertyOp0
 70
     1
102
RTVSPropertyOp1
 70
     1
102
RTVSPropertyOp2
 70
     1
102
RTVSPropertyOp3
 70
     1
102
RTVSPropertyOp4
 70
     1
102
RTVSPropertyOp5
 70
     1
102
RTVSPropertyOp6
 70
     1
102
RTVSPropertyOp7
 70
     1
102
RTVSPropertyOp8
 70
     1
102
RTVSPropertyOp9
 70
     1
102
RTVSPropertyOp10
 70
     1
102
RTVSPropertyOp11
 70
     1
102
RTVSPropertyOp12
 70
     1
102
RTVSPropertyOp13
 70
     1
102
RTVSPropertyOp14
 70
     1
102
RTVSPropertyOp15
 70
     1
102
RTVSPropertyOp16
 70
     1
102
RTVSPropertyOp17
 70
     1
102
RTVSPropertyOp18
 70
     1
102
RTVSPropertyOp19
 70
     1
102
RTVSPropertyOp20
 70
     1
102
RTVSPropertyOp21
 70
     1
102
RTVSPropertyOp22
 70
     1
102
RTVSPropertyOp23
 70
     1
102
RTVSPropertyOp24
 70
     1
102
RTVSPropertyOp25
 70
     1
102
RTVSPropertyOp26
 70
     1
102
RTVSPropertyOp27
 70
     1
  0
XRECORD
  5
E05B
102
{ACAD_REACTORS
330
E05A
102
}
330
E05A
100
AcDbXrecord
280
     1
102
RTVSPropertyOp0
 70
     1
102
RTVSPropertyOp1
 70
     1
102
RTVSPropertyOp2
 70
     1
102
RTVSPropertyOp3
 70
     1
102
RTVSPropertyOp4
 70
     1
102
RTVSPropertyOp5
 70
     1
102
RTVSPropertyOp6
 70
     1
102
RTVSPropertyOp7
 70
     1
102
RTVSPropertyOp8
 70
     1
102
RTVSPropertyOp9
 70
     1
102
RTVSPropertyOp10
 70
     1
102
RTVSPropertyOp11
 70
     1
102
RTVSPropertyOp12
 70
     1
102
RTVSPropertyOp13
 70
     1
102
RTVSPropertyOp14
 70
     1
102
RTVSPropertyOp15
 70
     1
102
RTVSPropertyOp16
 70
     1
102
RTVSPropertyOp17
 70
     1
102
RTVSPropertyOp18
 70
     1
102
RTVSPropertyOp19
 70
     1
102
RTVSPropertyOp20
 70
     1
102
RTVSPropertyOp21
 70
     1
102
RTVSPropertyOp22
 70
     1
102
RTVSPropertyOp23
 70
     1
102
RTVSPropertyOp24
 70
     1
102
RTVSPropertyOp25
 70
     1
102
RTVSPropertyOp26
 70
     1
102
RTVSPropertyOp27
 70
     1
  0
XRECORD
  5
E069
102
{ACAD_REACTORS
330
E068
102
}
330
E068
100
AcDbXrecord
280
     1
102
RTVSPropertyOp0
 70
     1
102
RTVSPropertyOp1
 70
     1
102
RTVSPropertyOp2
 70
     1
102
RTVSPropertyOp3
 70
     1
102
RTVSPropertyOp4
 70
     1
102
RTVSPropertyOp5
 70
     1
102
RTVSPropertyOp6
 70
     1
102
RTVSPropertyOp7
 70
     1
102
RTVSPropertyOp8
 70
     1
102
RTVSPropertyOp9
 70
     1
102
RTVSPropertyOp10
 70
     1
102
RTVSPropertyOp11
 70
     1
102
RTVSPropertyOp12
 70
     1
102
RTVSPropertyOp13
 70
     1
102
RTVSPropertyOp14
 70
     1
102
RTVSPropertyOp15
 70
     1
102
RTVSPropertyOp16
 70
     1
102
RTVSPropertyOp17
 70
     1
102
RTVSPropertyOp18
 70
     1
102
RTVSPropertyOp19
 70
     1
102
RTVSPropertyOp20
 70
     1
102
RTVSPropertyOp21
 70
     1
102
RTVSPropertyOp22
 70
     1
102
RTVSPropertyOp23
 70
     1
102
RTVSPropertyOp24
 70
     1
102
RTVSPropertyOp25
 70
     1
102
RTVSPropertyOp26
 70
     1
102
RTVSPropertyOp27
 70
     1
  0
XRECORD
  5
E071
102
{ACAD_REACTORS
330
E070
102
}
330
E070
100
AcDbXrecord
280
     1
102
RTVSPropertyOp0
 70
     1
102
RTVSPropertyOp1
 70
     1
102
RTVSPropertyOp2
 70
     1
102
RTVSPropertyOp3
 70
     1
102
RTVSPropertyOp4
 70
     1
102
RTVSPropertyOp5
 70
     1
102
RTVSPropertyOp6
 70
     1
102
RTVSPropertyOp7
 70
     1
102
RTVSPropertyOp8
 70
     1
102
RTVSPropertyOp9
 70
     1
102
RTVSPropertyOp10
 70
     1
102
RTVSPropertyOp11
 70
     1
102
RTVSPropertyOp12
 70
     1
102
RTVSPropertyOp13
 70
     1
102
RTVSPropertyOp14
 70
     1
102
RTVSPropertyOp15
 70
     1
102
RTVSPropertyOp16
 70
     1
102
RTVSPropertyOp17
 70
     1
102
RTVSPropertyOp18
 70
     1
102
RTVSPropertyOp19
 70
     1
102
RTVSPropertyOp20
 70
     1
102
RTVSPropertyOp21
 70
     1
102
RTVSPropertyOp22
 70
     1
102
RTVSPropertyOp23
 70
     1
102
RTVSPropertyOp24
 70
     1
102
RTVSPropertyOp25
 70
     1
102
RTVSPropertyOp26
 70
     1
102
RTVSPropertyOp27
 70
     1
  0
XRECORD
  5
E063
102
{ACAD_REACTORS
330
E062
102
}
330
E062
100
AcDbXrecord
280
     1
102
RTVSPropertyOp0
 70
     1
102
RTVSPropertyOp1
 70
     1
102
RTVSPropertyOp2
 70
     1
102
RTVSPropertyOp3
 70
     1
102
RTVSPropertyOp4
 70
     1
102
RTVSPropertyOp5
 70
     1
102
RTVSPropertyOp6
 70
     1
102
RTVSPropertyOp7
 70
     1
102
RTVSPropertyOp8
 70
     1
102
RTVSPropertyOp9
 70
     1
102
RTVSPropertyOp10
 70
     1
102
RTVSPropertyOp11
 70
     1
102
RTVSPropertyOp12
 70
     1
102
RTVSPropertyOp13
 70
     1
102
RTVSPropertyOp14
 70
     1
102
RTVSPropertyOp15
 70
     1
102
RTVSPropertyOp16
 70
     1
102
RTVSPropertyOp17
 70
     1
102
RTVSPropertyOp18
 70
     1
102
RTVSPropertyOp19
 70
     1
102
RTVSPropertyOp20
 70
     1
102
RTVSPropertyOp21
 70
     1
102
RTVSPropertyOp22
 70
     1
102
RTVSPropertyOp23
 70
     1
102
RTVSPropertyOp24
 70
     1
102
RTVSPropertyOp25
 70
     1
102
RTVSPropertyOp26
 70
     1
102
RTVSPropertyOp27
 70
     1
  0
XRECORD
  5
E067
102
{ACAD_REACTORS
330
E066
102
}
330
E066
100
AcDbXrecord
280
     1
102
RTVSPropertyOp0
 70
     1
102
RTVSPropertyOp1
 70
     1
102
RTVSPropertyOp2
 70
     1
102
RTVSPropertyOp3
 70
     1
102
RTVSPropertyOp4
 70
     1
102
RTVSPropertyOp5
 70
     1
102
RTVSPropertyOp6
 70
     1
102
RTVSPropertyOp7
 70
     1
102
RTVSPropertyOp8
 70
     1
102
RTVSPropertyOp9
 70
     1
102
RTVSPropertyOp10
 70
     1
102
RTVSPropertyOp11
 70
     1
102
RTVSPropertyOp12
 70
     1
102
RTVSPropertyOp13
 70
     1
102
RTVSPropertyOp14
 70
     1
102
RTVSPropertyOp15
 70
     1
102
RTVSPropertyOp16
 70
     1
102
RTVSPropertyOp17
 70
     1
102
RTVSPropertyOp18
 70
     1
102
RTVSPropertyOp19
 70
     1
102
RTVSPropertyOp20
 70
     1
102
RTVSPropertyOp21
 70
     1
102
RTVSPropertyOp22
 70
     1
102
RTVSPropertyOp23
 70
     1
102
RTVSPropertyOp24
 70
     1
102
RTVSPropertyOp25
 70
     1
102
RTVSPropertyOp26
 70
     1
102
RTVSPropertyOp27
 70
     1
  0
XRECORD
  5
E077
102
{ACAD_REACTORS
330
E076
102
}
330
E076
100
AcDbXrecord
280
     1
102
RTVSPropertyOp0
 70
     0
102
RTVSPropertyOp1
 70
     0
102
RTVSPropertyOp2
 70
     0
102
RTVSPropertyOp3
 70
     0
102
RTVSPropertyOp4
 70
     0
102
RTVSPropertyOp5
 70
     0
102
RTVSPropertyOp6
 70
     0
102
RTVSPropertyOp7
 70
     0
102
RTVSPropertyOp8
 70
     0
102
RTVSPropertyOp9
 70
     0
102
RTVSPropertyOp10
 70
     0
102
RTVSPropertyOp11
 70
     0
102
RTVSPropertyOp12
 70
     0
102
RTVSPropertyOp13
 70
     0
102
RTVSPropertyOp14
 70
     2
102
RTVSPropertyOp15
 70
     0
102
RTVSPropertyOp16
 70
     0
102
RTVSPropertyOp17
 70
     0
102
RTVSPropertyOp18
 70
     0
102
RTVSPropertyOp19
 70
     0
102
RTVSPropertyOp20
 70
     0
102
RTVSPropertyOp21
 70
     0
102
RTVSPropertyOp22
 70
     0
102
RTVSPropertyOp23
 70
     0
102
RTVSPropertyOp24
 70
     0
102
RTVSPropertyOp25
 70
     0
102
RTVSPropertyOp26
 70
     0
102
RTVSPropertyOp27
 70
     0
  0
XRECORD
  5
E06F
102
{ACAD_REACTORS
330
E06E
102
}
330
E06E
100
AcDbXrecord
280
     1
102
RTVSPropertyOp0
 70
     1
102
RTVSPropertyOp1
 70
     1
102
RTVSPropertyOp2
 70
     1
102
RTVSPropertyOp3
 70
     1
102
RTVSPropertyOp4
 70
     1
102
RTVSPropertyOp5
 70
     1
102
RTVSPropertyOp6
 70
     1
102
RTVSPropertyOp7
 70
     1
102
RTVSPropertyOp8
 70
     1
102
RTVSPropertyOp9
 70
     1
102
RTVSPropertyOp10
 70
     1
102
RTVSPropertyOp11
 70
     1
102
RTVSPropertyOp12
 70
     1
102
RTVSPropertyOp13
 70
     1
102
RTVSPropertyOp14
 70
     1
102
RTVSPropertyOp15
 70
     1
102
RTVSPropertyOp16
 70
     1
102
RTVSPropertyOp17
 70
     1
102
RTVSPropertyOp18
 70
     1
102
RTVSPropertyOp19
 70
     1
102
RTVSPropertyOp20
 70
     1
102
RTVSPropertyOp21
 70
     1
102
RTVSPropertyOp22
 70
     1
102
RTVSPropertyOp23
 70
     1
102
RTVSPropertyOp24
 70
     1
102
RTVSPropertyOp25
 70
     1
102
RTVSPropertyOp26
 70
     1
102
RTVSPropertyOp27
 70
     1
  0
XRECORD
  5
E053
102
{ACAD_REACTORS
330
E052
102
}
330
E052
100
AcDbXrecord
280
     1
102
RTVSPropertyOp0
 70
     1
102
RTVSPropertyOp1
 70
     1
102
RTVSPropertyOp2
 70
     1
102
RTVSPropertyOp3
 70
     1
102
RTVSPropertyOp4
 70
     1
102
RTVSPropertyOp5
 70
     1
102
RTVSPropertyOp6
 70
     1
102
RTVSPropertyOp7
 70
     1
102
RTVSPropertyOp8
 70
     1
102
RTVSPropertyOp9
 70
     1
102
RTVSPropertyOp10
 70
     1
102
RTVSPropertyOp11
 70
     1
102
RTVSPropertyOp12
 70
     1
102
RTVSPropertyOp13
 70
     1
102
RTVSPropertyOp14
 70
     1
102
RTVSPropertyOp15
 70
     1
102
RTVSPropertyOp16
 70
     1
102
RTVSPropertyOp17
 70
     1
102
RTVSPropertyOp18
 70
     1
102
RTVSPropertyOp19
 70
     1
102
RTVSPropertyOp20
 70
     1
102
RTVSPropertyOp21
 70
     1
102
RTVSPropertyOp22
 70
     1
102
RTVSPropertyOp23
 70
     1
102
RTVSPropertyOp24
 70
     1
102
RTVSPropertyOp25
 70
     1
102
RTVSPropertyOp26
 70
     1
102
RTVSPropertyOp27
 70
     1
  0
XRECORD
  5
E055
102
{ACAD_REACTORS
330
E054
102
}
330
E054
100
AcDbXrecord
280
     1
102
RTVSPropertyOp0
 70
     1
102
RTVSPropertyOp1
 70
     1
102
RTVSPropertyOp2
 70
     1
102
RTVSPropertyOp3
 70
     1
102
RTVSPropertyOp4
 70
     1
102
RTVSPropertyOp5
 70
     1
102
RTVSPropertyOp6
 70
     1
102
RTVSPropertyOp7
 70
     1
102
RTVSPropertyOp8
 70
     1
102
RTVSPropertyOp9
 70
     1
102
RTVSPropertyOp10
 70
     1
102
RTVSPropertyOp11
 70
     1
102
RTVSPropertyOp12
 70
     1
102
RTVSPropertyOp13
 70
     1
102
RTVSPropertyOp14
 70
     1
102
RTVSPropertyOp15
 70
     1
102
RTVSPropertyOp16
 70
     1
102
RTVSPropertyOp17
 70
     1
102
RTVSPropertyOp18
 70
     1
102
RTVSPropertyOp19
 70
     1
102
RTVSPropertyOp20
 70
     1
102
RTVSPropertyOp21
 70
     1
102
RTVSPropertyOp22
 70
     1
102
RTVSPropertyOp23
 70
     1
102
RTVSPropertyOp24
 70
     1
102
RTVSPropertyOp25
 70
     1
102
RTVSPropertyOp26
 70
     1
102
RTVSPropertyOp27
 70
     1
  0
XRECORD
  5
E057
102
{ACAD_REACTORS
330
E056
102
}
330
E056
100
AcDbXrecord
280
     1
102
RTVSPropertyOp0
 70
     1
102
RTVSPropertyOp1
 70
     1
102
RTVSPropertyOp2
 70
     1
102
RTVSPropertyOp3
 70
     1
102
RTVSPropertyOp4
 70
     1
102
RTVSPropertyOp5
 70
     1
102
RTVSPropertyOp6
 70
     1
102
RTVSPropertyOp7
 70
     1
102
RTVSPropertyOp8
 70
     1
102
RTVSPropertyOp9
 70
     1
102
RTVSPropertyOp10
 70
     1
102
RTVSPropertyOp11
 70
     1
102
RTVSPropertyOp12
 70
     1
102
RTVSPropertyOp13
 70
     1
102
RTVSPropertyOp14
 70
     1
102
RTVSPropertyOp15
 70
     1
102
RTVSPropertyOp16
 70
     1
102
RTVSPropertyOp17
 70
     1
102
RTVSPropertyOp18
 70
     1
102
RTVSPropertyOp19
 70
     1
102
RTVSPropertyOp20
 70
     1
102
RTVSPropertyOp21
 70
     1
102
RTVSPropertyOp22
 70
     1
102
RTVSPropertyOp23
 70
     1
102
RTVSPropertyOp24
 70
     1
102
RTVSPropertyOp25
 70
     1
102
RTVSPropertyOp26
 70
     1
102
RTVSPropertyOp27
 70
     1
  0
XRECORD
  5
E059
102
{ACAD_REACTORS
330
E058
102
}
330
E058
100
AcDbXrecord
280
     1
102
RTVSPropertyOp0
 70
     1
102
RTVSPropertyOp1
 70
     1
102
RTVSPropertyOp2
 70
     1
102
RTVSPropertyOp3
 70
     1
102
RTVSPropertyOp4
 70
     1
102
RTVSPropertyOp5
 70
     1
102
RTVSPropertyOp6
 70
     1
102
RTVSPropertyOp7
 70
     1
102
RTVSPropertyOp8
 70
     1
102
RTVSPropertyOp9
 70
     1
102
RTVSPropertyOp10
 70
     1
102
RTVSPropertyOp11
 70
     1
102
RTVSPropertyOp12
 70
     1
102
RTVSPropertyOp13
 70
     1
102
RTVSPropertyOp14
 70
     1
102
RTVSPropertyOp15
 70
     1
102
RTVSPropertyOp16
 70
     1
102
RTVSPropertyOp17
 70
     1
102
RTVSPropertyOp18
 70
     1
102
RTVSPropertyOp19
 70
     1
102
RTVSPropertyOp20
 70
     1
102
RTVSPropertyOp21
 70
     1
102
RTVSPropertyOp22
 70
     1
102
RTVSPropertyOp23
 70
     1
102
RTVSPropertyOp24
 70
     1
102
RTVSPropertyOp25
 70
     1
102
RTVSPropertyOp26
 70
     1
102
RTVSPropertyOp27
 70
     1
  0
XRECORD
  5
1B0
102
{ACAD_REACTORS
330
1AF
102
}
330
1AF
100
AcDbXrecord
280
     1
102
RTVSPropertyOp28
 70
     1
102
RTVSPropertyOp29
 70
     1
102
RTVSPropertyOp30
 70
     1
102
RTVSPropertyOp31
 70
     1
102
RTVSPropertyOp32
 70
     1
102
RTVSPropertyOp0
 70
     1
102
RTVSPropertyOp1
 70
     1
102
RTVSPropertyOp2
 70
     1
102
RTVSPropertyOp3
 70
     1
102
RTVSPropertyOp4
 70
     1
102
RTVSPropertyOp5
 70
     1
102
RTVSPropertyOp6
 70
     1
102
RTVSPropertyOp7
 70
     1
102
RTVSPropertyOp8
 70
     1
102
RTVSPropertyOp9
 70
     1
102
RTVSPropertyOp10
 70
     1
102
RTVSPropertyOp11
 70
     1
102
RTVSPropertyOp12
 70
     1
102
RTVSPropertyOp13
 70
     1
102
RTVSPropertyOp14
 70
     1
102
RTVSPropertyOp15
 70
     1
102
RTVSPropertyOp16
 70
     1
102
RTVSPropertyOp17
 70
     1
102
RTVSPropertyOp18
 70
     1
102
RTVSPropertyOp19
 70
     1
102
RTVSPropertyOp20
 70
     1
102
RTVSPropertyOp21
 70
     1
102
RTVSPropertyOp22
 70
     1
102
RTVSPropertyOp23
 70
     1
102
RTVSPropertyOp24
 70
     1
102
RTVSPropertyOp25
 70
     1
102
RTVSPropertyOp26
 70
     1
102
RTVSPropertyOp27
 70
     1
  0
XRECORD
  5
E073
102
{ACAD_REACTORS
330
E072
102
}
330
E072
100
AcDbXrecord
280
     1
102
RTVSPropertyOp0
 70
     0
102
RTVSPropertyOp1
 70
     0
102
RTVSPropertyOp2
 70
     0
102
RTVSPropertyOp3
 70
     0
102
RTVSPropertyOp4
 70
     0
102
RTVSPropertyOp5
 70
     0
102
RTVSPropertyOp6
 70
     0
102
RTVSPropertyOp7
 70
     0
102
RTVSPropertyOp8
 70
     0
102
RTVSPropertyOp9
 70
     0
102
RTVSPropertyOp10
 70
     0
102
RTVSPropertyOp11
 70
     0
102
RTVSPropertyOp12
 70
     0
102
RTVSPropertyOp13
 70
     0
102
RTVSPropertyOp14
 70
     2
102
RTVSPropertyOp15
 70
     0
102
RTVSPropertyOp16
 70
     0
102
RTVSPropertyOp17
 70
     0
102
RTVSPropertyOp18
 70
     0
102
RTVSPropertyOp19
 70
     0
102
RTVSPropertyOp20
 70
     0
102
RTVSPropertyOp21
 70
     0
102
RTVSPropertyOp22
 70
     0
102
RTVSPropertyOp23
 70
     0
102
RTVSPropertyOp24
 70
     0
102
RTVSPropertyOp25
 70
     0
102
RTVSPropertyOp26
 70
     0
102
RTVSPropertyOp27
 70
     0
  0
XRECORD
  5
E06D
102
{ACAD_REACTORS
330
E06C
102
}
330
E06C
100
AcDbXrecord
280
     1
102
RTVSPropertyOp0
 70
     1
102
RTVSPropertyOp1
 70
     1
102
RTVSPropertyOp2
 70
     1
102
RTVSPropertyOp3
 70
     1
102
RTVSPropertyOp4
 70
     1
102
RTVSPropertyOp5
 70
     1
102
RTVSPropertyOp6
 70
     1
102
RTVSPropertyOp7
 70
     1
102
RTVSPropertyOp8
 70
     1
102
RTVSPropertyOp9
 70
     1
102
RTVSPropertyOp10
 70
     1
102
RTVSPropertyOp11
 70
     1
102
RTVSPropertyOp12
 70
     1
102
RTVSPropertyOp13
 70
     1
102
RTVSPropertyOp14
 70
     1
102
RTVSPropertyOp15
 70
     1
102
RTVSPropertyOp16
 70
     1
102
RTVSPropertyOp17
 70
     1
102
RTVSPropertyOp18
 70
     1
102
RTVSPropertyOp19
 70
     1
102
RTVSPropertyOp20
 70
     1
102
RTVSPropertyOp21
 70
     1
102
RTVSPropertyOp22
 70
     1
102
RTVSPropertyOp23
 70
     1
102
RTVSPropertyOp24
 70
     1
102
RTVSPropertyOp25
 70
     1
102
RTVSPropertyOp26
 70
     1
102
RTVSPropertyOp27
 70
     1
  0
XRECORD
  5
E075
102
{ACAD_REACTORS
330
E074
102
}
330
E074
100
AcDbXrecord
280
     1
102
RTVSPropertyOp0
 70
     0
102
RTVSPropertyOp1
 70
     0
102
RTVSPropertyOp2
 70
     0
102
RTVSPropertyOp3
 70
     0
102
RTVSPropertyOp4
 70
     0
102
RTVSPropertyOp5
 70
     0
102
RTVSPropertyOp6
 70
     0
102
RTVSPropertyOp7
 70
     0
102
RTVSPropertyOp8
 70
     0
102
RTVSPropertyOp9
 70
     0
102
RTVSPropertyOp10
 70
     0
102
RTVSPropertyOp11
 70
     0
102
RTVSPropertyOp12
 70
     0
102
RTVSPropertyOp13
 70
     0
102
RTVSPropertyOp14
 70
     2
102
RTVSPropertyOp15
 70
     0
102
RTVSPropertyOp16
 70
     0
102
RTVSPropertyOp17
 70
     0
102
RTVSPropertyOp18
 70
     0
102
RTVSPropertyOp19
 70
     0
102
RTVSPropertyOp20
 70
     0
102
RTVSPropertyOp21
 70
     0
102
RTVSPropertyOp22
 70
     0
102
RTVSPropertyOp23
 70
     0
102
RTVSPropertyOp24
 70
     0
102
RTVSPropertyOp25
 70
     0
102
RTVSPropertyOp26
 70
     0
102
RTVSPropertyOp27
 70
     0
  0
XRECORD
  5
E065
102
{ACAD_REACTORS
330
E064
102
}
330
E064
100
AcDbXrecord
280
     1
102
RTVSPropertyOp0
 70
     1
102
RTVSPropertyOp1
 70
     1
102
RTVSPropertyOp2
 70
     1
102
RTVSPropertyOp3
 70
     1
102
RTVSPropertyOp4
 70
     1
102
RTVSPropertyOp5
 70
     1
102
RTVSPropertyOp6
 70
     1
102
RTVSPropertyOp7
 70
     1
102
RTVSPropertyOp8
 70
     1
102
RTVSPropertyOp9
 70
     1
102
RTVSPropertyOp10
 70
     1
102
RTVSPropertyOp11
 70
     1
102
RTVSPropertyOp12
 70
     1
102
RTVSPropertyOp13
 70
     1
102
RTVSPropertyOp14
 70
     1
102
RTVSPropertyOp15
 70
     1
102
RTVSPropertyOp16
 70
     1
102
RTVSPropertyOp17
 70
     1
102
RTVSPropertyOp18
 70
     1
102
RTVSPropertyOp19
 70
     1
102
RTVSPropertyOp20
 70
     1
102
RTVSPropertyOp21
 70
     1
102
RTVSPropertyOp22
 70
     1
102
RTVSPropertyOp23
 70
     1
102
RTVSPropertyOp24
 70
     1
102
RTVSPropertyOp25
 70
     1
102
RTVSPropertyOp26
 70
     1
102
RTVSPropertyOp27
 70
     1
  0
XRECORD
  5
1B3
102
{ACAD_REACTORS
330
1B2
102
}
330
1B2
100
AcDbXrecord
280
     1
102
RTVSPropertyOp28
 70
     1
102
RTVSPropertyOp29
 70
     1
102
RTVSPropertyOp30
 70
     1
102
RTVSPropertyOp31
 70
     1
102
RTVSPropertyOp32
 70
     1
102
RTVSPropertyOp0
 70
     1
102
RTVSPropertyOp1
 70
     1
102
RTVSPropertyOp2
 70
     1
102
RTVSPropertyOp3
 70
     1
102
RTVSPropertyOp4
 70
     1
102
RTVSPropertyOp5
 70
     1
102
RTVSPropertyOp6
 70
     1
102
RTVSPropertyOp7
 70
     1
102
RTVSPropertyOp8
 70
     1
102
RTVSPropertyOp9
 70
     1
102
RTVSPropertyOp10
 70
     1
102
RTVSPropertyOp11
 70
     1
102
RTVSPropertyOp12
 70
     1
102
RTVSPropertyOp13
 70
     1
102
RTVSPropertyOp14
 70
     1
102
RTVSPropertyOp15
 70
     1
102
RTVSPropertyOp16
 70
     1
102
RTVSPropertyOp17
 70
     1
102
RTVSPropertyOp18
 70
     1
102
RTVSPropertyOp19
 70
     1
102
RTVSPropertyOp20
 70
     1
102
RTVSPropertyOp21
 70
     1
102
RTVSPropertyOp22
 70
     1
102
RTVSPropertyOp23
 70
     1
102
RTVSPropertyOp24
 70
     1
102
RTVSPropertyOp25
 70
     1
102
RTVSPropertyOp26
 70
     1
102
RTVSPropertyOp27
 70
     1
  0
XRECORD
  5
1B6
102
{ACAD_REACTORS
330
1B5
102
}
330
1B5
100
AcDbXrecord
280
     1
102
RTVSPropertyOp28
 70
     1
102
RTVSPropertyOp29
 70
     1
102
RTVSPropertyOp30
 70
     1
102
RTVSPropertyOp31
 70
     1
102
RTVSPropertyOp32
 70
     1
102
RTVSPropertyOp0
 70
     1
102
RTVSPropertyOp1
 70
     1
102
RTVSPropertyOp2
 70
     1
102
RTVSPropertyOp3
 70
     1
102
RTVSPropertyOp4
 70
     1
102
RTVSPropertyOp5
 70
     1
102
RTVSPropertyOp6
 70
     1
102
RTVSPropertyOp7
 70
     1
102
RTVSPropertyOp8
 70
     1
102
RTVSPropertyOp9
 70
     1
102
RTVSPropertyOp10
 70
     1
102
RTVSPropertyOp11
 70
     1
102
RTVSPropertyOp12
 70
     1
102
RTVSPropertyOp13
 70
     1
102
RTVSPropertyOp14
 70
     1
102
RTVSPropertyOp15
 70
     1
102
RTVSPropertyOp16
 70
     1
102
RTVSPropertyOp17
 70
     1
102
RTVSPropertyOp18
 70
     1
102
RTVSPropertyOp19
 70
     1
102
RTVSPropertyOp20
 70
     1
102
RTVSPropertyOp21
 70
     1
102
RTVSPropertyOp22
 70
     1
102
RTVSPropertyOp23
 70
     1
102
RTVSPropertyOp24
 70
     1
102
RTVSPropertyOp25
 70
     1
102
RTVSPropertyOp26
 70
     1
102
RTVSPropertyOp27
 70
     1
  0
XRECORD
  5
1B9
102
{ACAD_REACTORS
330
1B8
102
}
330
1B8
100
AcDbXrecord
280
     1
102
RTVSPropertyOp28
 70
     1
102
RTVSPropertyOp29
 70
     1
102
RTVSPropertyOp30
 70
     1
102
RTVSPropertyOp31
 70
     1
102
RTVSPropertyOp32
 70
     1
102
RTVSPropertyOp0
 70
     1
102
RTVSPropertyOp1
 70
     1
102
RTVSPropertyOp2
 70
     1
102
RTVSPropertyOp3
 70
     1
102
RTVSPropertyOp4
 70
     1
102
RTVSPropertyOp5
 70
     1
102
RTVSPropertyOp6
 70
     1
102
RTVSPropertyOp7
 70
     1
102
RTVSPropertyOp8
 70
     1
102
RTVSPropertyOp9
 70
     1
102
RTVSPropertyOp10
 70
     1
102
RTVSPropertyOp11
 70
     1
102
RTVSPropertyOp12
 70
     1
102
RTVSPropertyOp13
 70
     1
102
RTVSPropertyOp14
 70
     1
102
RTVSPropertyOp15
 70
     1
102
RTVSPropertyOp16
 70
     1
102
RTVSPropertyOp17
 70
     1
102
RTVSPropertyOp18
 70
     1
102
RTVSPropertyOp19
 70
     1
102
RTVSPropertyOp20
 70
     1
102
RTVSPropertyOp21
 70
     1
102
RTVSPropertyOp22
 70
     1
102
RTVSPropertyOp23
 70
     1
102
RTVSPropertyOp24
 70
     1
102
RTVSPropertyOp25
 70
     1
102
RTVSPropertyOp26
 70
     1
102
RTVSPropertyOp27
 70
     1
  0
XRECORD
  5
1BC
102
{ACAD_REACTORS
330
1BB
102
}
330
1BB
100
AcDbXrecord
280
     1
102
RTVSPropertyOp28
 70
     1
102
RTVSPropertyOp29
 70
     1
102
RTVSPropertyOp30
 70
     1
102
RTVSPropertyOp31
 70
     1
102
RTVSPropertyOp32
 70
     1
102
RTVSPropertyOp0
 70
     1
102
RTVSPropertyOp1
 70
     1
102
RTVSPropertyOp2
 70
     1
102
RTVSPropertyOp3
 70
     1
102
RTVSPropertyOp4
 70
     1
102
RTVSPropertyOp5
 70
     1
102
RTVSPropertyOp6
 70
     1
102
RTVSPropertyOp7
 70
     1
102
RTVSPropertyOp8
 70
     1
102
RTVSPropertyOp9
 70
     1
102
RTVSPropertyOp10
 70
     1
102
RTVSPropertyOp11
 70
     1
102
RTVSPropertyOp12
 70
     1
102
RTVSPropertyOp13
 70
     1
102
RTVSPropertyOp14
 70
     1
102
RTVSPropertyOp15
 70
     1
102
RTVSPropertyOp16
 70
     1
102
RTVSPropertyOp17
 70
     1
102
RTVSPropertyOp18
 70
     1
102
RTVSPropertyOp19
 70
     1
102
RTVSPropertyOp20
 70
     1
102
RTVSPropertyOp21
 70
     1
102
RTVSPropertyOp22
 70
     1
102
RTVSPropertyOp23
 70
     1
102
RTVSPropertyOp24
 70
     1
102
RTVSPropertyOp25
 70
     1
102
RTVSPropertyOp26
 70
     1
102
RTVSPropertyOp27
 70
     1
  0
XRECORD
  5
E06B
102
{ACAD_REACTORS
330
E06A
102
}
330
E06A
100
AcDbXrecord
280
     1
102
RTVSPropertyOp0
 70
     1
102
RTVSPropertyOp1
 70
     1
102
RTVSPropertyOp2
 70
     1
102
RTVSPropertyOp3
 70
     1
102
RTVSPropertyOp4
 70
     1
102
RTVSPropertyOp5
 70
     1
102
RTVSPropertyOp6
 70
     1
102
RTVSPropertyOp7
 70
     1
102
RTVSPropertyOp8
 70
     1
102
RTVSPropertyOp9
 70
     1
102
RTVSPropertyOp10
 70
     1
102
RTVSPropertyOp11
 70
     1
102
RTVSPropertyOp12
 70
     1
102
RTVSPropertyOp13
 70
     1
102
RTVSPropertyOp14
 70
     1
102
RTVSPropertyOp15
 70
     1
102
RTVSPropertyOp16
 70
     1
102
RTVSPropertyOp17
 70
     1
102
RTVSPropertyOp18
 70
     1
102
RTVSPropertyOp19
 70
     1
102
RTVSPropertyOp20
 70
     1
102
RTVSPropertyOp21
 70
     1
102
RTVSPropertyOp22
 70
     1
102
RTVSPropertyOp23
 70
     1
102
RTVSPropertyOp24
 70
     1
102
RTVSPropertyOp25
 70
     1
102
RTVSPropertyOp26
 70
     1
102
RTVSPropertyOp27
 70
     1
  0
XRECORD
  5
1BF
102
{ACAD_REACTORS
330
1BE
102
}
330
1BE
100
AcDbXrecord
280
     1
102
RTVSPropertyOp28
 70
     1
102
RTVSPropertyOp29
 70
     1
102
RTVSPropertyOp30
 70
     1
102
RTVSPropertyOp31
 70
     1
102
RTVSPropertyOp32
 70
     1
102
RTVSPropertyOp0
 70
     1
102
RTVSPropertyOp1
 70
     1
102
RTVSPropertyOp2
 70
     1
102
RTVSPropertyOp3
 70
     1
102
RTVSPropertyOp4
 70
     1
102
RTVSPropertyOp5
 70
     1
102
RTVSPropertyOp6
 70
     1
102
RTVSPropertyOp7
 70
     1
102
RTVSPropertyOp8
 70
     1
102
RTVSPropertyOp9
 70
     1
102
RTVSPropertyOp10
 70
     1
102
RTVSPropertyOp11
 70
     1
102
RTVSPropertyOp12
 70
     1
102
RTVSPropertyOp13
 70
     1
102
RTVSPropertyOp14
 70
     1
102
RTVSPropertyOp15
 70
     1
102
RTVSPropertyOp16
 70
     1
102
RTVSPropertyOp17
 70
     1
102
RTVSPropertyOp18
 70
     1
102
RTVSPropertyOp19
 70
     1
102
RTVSPropertyOp20
 70
     1
102
RTVSPropertyOp21
 70
     1
102
RTVSPropertyOp22
 70
     1
102
RTVSPropertyOp23
 70
     1
102
RTVSPropertyOp24
 70
     1
102
RTVSPropertyOp25
 70
     1
102
RTVSPropertyOp26
 70
     1
102
RTVSPropertyOp27
 70
     1
  0
XRECORD
  5
1C2
102
{ACAD_REACTORS
330
1C1
102
}
330
1C1
100
AcDbXrecord
280
     1
102
RTVSPropertyOp28
 70
     1
102
RTVSPropertyOp29
 70
     1
102
RTVSPropertyOp30
 70
     1
102
RTVSPropertyOp31
 70
     1
102
RTVSPropertyOp32
 70
     1
102
RTVSPropertyOp0
 70
     1
102
RTVSPropertyOp1
 70
     1
102
RTVSPropertyOp2
 70
     1
102
RTVSPropertyOp3
 70
     1
102
RTVSPropertyOp4
 70
     1
102
RTVSPropertyOp5
 70
     1
102
RTVSPropertyOp6
 70
     1
102
RTVSPropertyOp7
 70
     1
102
RTVSPropertyOp8
 70
     1
102
RTVSPropertyOp9
 70
     1
102
RTVSPropertyOp10
 70
     1
102
RTVSPropertyOp11
 70
     1
102
RTVSPropertyOp12
 70
     1
102
RTVSPropertyOp13
 70
     1
102
RTVSPropertyOp14
 70
     1
102
RTVSPropertyOp15
 70
     1
102
RTVSPropertyOp16
 70
     1
102
RTVSPropertyOp17
 70
     1
102
RTVSPropertyOp18
 70
     1
102
RTVSPropertyOp19
 70
     1
102
RTVSPropertyOp20
 70
     1
102
RTVSPropertyOp21
 70
     1
102
RTVSPropertyOp22
 70
     1
102
RTVSPropertyOp23
 70
     1
102
RTVSPropertyOp24
 70
     1
102
RTVSPropertyOp25
 70
     1
102
RTVSPropertyOp26
 70
     1
102
RTVSPropertyOp27
 70
     1
  0
DMBASEELEMENT
  5
182
102
{ACAD_XDICTIONARY
360
186
102
}
102
{ACAD_REACTORS
330
17F
102
}
330
17F
100
AcMapDMBaseElement
 70
     1
  1
Map Base
 70
     1
330
17F
100
AcMapDMBaseElement
 70
     1
  1

 70
     2
  1

 70
     1
 40
1.797693134862314E+99
 70
     1
 70
     1
 70
     1
 70
     1
360
185
100
AcMapDMBaseElement
 70
     1
  0
DMDEFAULTSTYLE
  5
183
102
{ACAD_REACTORS
330
17F
102
}
330
17F
100
AcMapDMDefaultStyle
 70
     1
 90
        1
  1
Default
100
AcMapDMDefaultStyle
 70
     1
280
   100
 90
     0
1001
AcMapDMDisplayStyleRegapp
1070
     2
1071
        1
1000
Default
1000

  0
DICTIONARY
  5
186
330
182
100
AcDbDictionary
280
     1
281
     1
  3
AcMapDMSurrogateStyleSets
360
187
  0
DMSTYLEREFERENCE
  5
185
330
182
100
AcMapDMStyleReference
 70
     1
 70
     0
340
183
330
17F
  0
DMSURROGATESTYLESETS
  5
187
102
{ACAD_REACTORS
330
186
102
}
330
186
100
AcMapDMSurrogateStyleSets
 70
     1
  1
Map Base
 70
     1
 40
1.797693134862314E+99
 70
     1
 70
     1
 70
     1
 70
     1
330
185
 70
     0
  0
ENDSEC
  0
EOF
